Oops, an error
Loading. Please wait.
We have an official Fully Alive tab made by UG professional guitarists. Check out the tab »
×

Fully Alive tab

by Flyleaf
59,259 views 27 this week
17 commentsread comments
1 2 3 4 5
x 30
add to favorites
×
Save as Personal and add changes to this tab that will be seen only by you. Learn more ›
×
You can save this tab as Personal to edit and correct it or add notes. All changes will be seen only by you. Learn more »
launch autoscroll
font size
0
reset
how to read this tab
guitar tuner
edit
Autoscroll
slow
fast
+/-
esc
set tempo
stop
Tuning: Drop D - DADGBE

I don't think this is the album version for those that are seeking it, but this is the 
that i have, and the more popular one thats played on the radio most of the time

[Intro]
e|---------------------------|
B|---------------------------|
G|---------------------------|
D|---------------------------| (x2)
A|---------------------------|
D|--3--0--3--5--8--5--8--10--|

e|----------------------------------------------|
B|----------------------------------------------|
G|----------------------------------------------|
D|----------------------------------------------|
A|----------------------------------------------|
D|--3--0--3--5--8--5--8--10----8--5--8----5--0--|

e|----------------------------------------------|
B|----------------------------------------------|
G|----------------------------------------------|
D|--3--0--3--5--8--5--8--10----8--5--8----5--0--| (x2)
A|--3--0--3--5--8--5--8--10----8--5--8----5--0--|
D|--3--0--3--5--8--5--8--10----8--5--8----5--0--|

[Verse] (x4)
e|---------------------------------------------------------------------------|
B|---------------------------------------------------------------------------|
G|---------------------------------------------------------------------------|
D|--3--0-------5--0----------------------------------------------------------|
A|--3--0-------5--0------3--0--3--5--8--5--8--10--3--0--3--5--8--5--8--10----|
D|--3--0-------5--0------3--0--3--5--8--5--8--10--3--0--3--5--8—-5--8--10----|
                        |----------------------PM----------------------------|

[Chorus] (x2)
e|-------------------------------------------------------------------|
B|-------------------------------------------------------------------|
G|--7-7-7-7-7-7-7-7-7-7-7-7-10-10-10---------------------------------|
D|--7-7-7-7-7-7-7-7-7-7-7-7-10-10-10-5-5-5/8-8-8-8-8-8-8-0--3--3--5--|
A|--5-5-5-5-5-5-5-5-5-5-5-5--8--8--8-5-5-5/8-8-8-8-8-8-8-0--3--3--5--|
D|--0-0-0-0-0-0-0-0-0-0-0-0----------5-5-5/8-8-8-8-8-8-8-0--3--3--5--|

[Verse Altered]
e|---------------------------------------------------|
B|---------------------------------------------------|
G|---------------------------------------------------|
D|--3--0-------5--0----------------------------------| (x3)
A|--3--0-------5--0------3--0--3--5--8--5--8--10-----|
D|--3--0-------5--0------3--0--3--5--8--5--8--10-----|
                        |----------PM----------------|

e|---------------------------------------------------------------------|
B|---------------------------------------------------------------------|
G|---------------------------------------------------------------------|
D|--3--0-------5--0----------------------------------------------------|
A|--3--0-------5--0------3--0--3--5--8--5--8--10----8--5--8----5--0----|
D|--3--0-------5--0------3--0--3--5--8--5--8--10----8--5--8----5--0----|
                        |-------------------PM-------------------------|

[Chorus] (x2)
e|-------------------------------------------------------------------|
B|-------------------------------------------------------------------|
G|--7-7-7-7-7-7-7-7-7-7-7-7-10-10-10---------------------------------|
D|--7-7-7-7-7-7-7-7-7-7-7-7-10-10-10-5-5-5/8-8-8-8-8-8-8-0--3--3--5--|
A|--5-5-5-5-5-5-5-5-5-5-5-5--8--8--8-5-5-5/8-8-8-8-8-8-8-0--3--3--5--|
D|--0-0-0-0-0-0-0-0-0-0-0-0----------5-5-5/8-8-8-8-8-8-8-0--3--3--5--|

[Solo]
e|------------------------------------------------------------------|
B|------------------------------------------------------------------|
G|------------------------------------------------------------------|
D|----------5-5-5-5-3-3-3-3-3-10-10-10-10/12-12-12-12-12-12-12-12/--|
A|--5-5-5-5---------------------------------------------------------|
D|------------------------------------------------------------------|

e|--------------------------------------------------------------------|
B|--------------------------------------------------------------------|
G|--12-12-12-12\10-10-10-10-------------------------------------------|
D|--------------------------12-12-12-12-12-12-12-12-----------5-5-5/--|
A|--------------------------------------------------3-3-3-3-3---------|
D|--------------------------------------------------------------------|

e|-------------------------------------|
B|-------------------------------------|
G|-------------------------------------|
D|--7-7-7-7-7\3-3-3-3/5-5-5-5-5-5-5-5--|
A|-------------------------------------|
D|-------------------------------------|

e|------------------------------------------------------------------|
B|------------------------------------------------------------------|
G|------------------------------------------------------------------|
D|----------5-5-5-5-3-3-3-3-3-10-10-10-10/12-12-12-12-12-12-12-12/--|
A|--5-5-5-5---------------------------------------------------------|
D|------------------------------------------------------------------|

e|--------------------------------------------------------------------|
B|--------------------------------------------------------------------|
G|--14-14\12-12\10-10-10-10-------------------------------------------|
D|--------------------------12-12-12-12-12-12-12-12-----------5-5-5/--|
A|--------------------------------------------------3-3-3-3-3---------|
D|--------------------------------------------------------------------|

e|-------------------------------------|
B|-------------------------------------|
G|-------------------------------------|
D|--7-7-7-7-7\3-3-3-3/5-5-5-5-5-5-5-5--|
A|-------------------------------------|
D|-------------------------------------|

e|------------------------------------------------------------------|
B|------------------------------------------------------------------|
G|------------------------------------------------------------------|
D|----------5-5-5-5-3-3-3-3-3-10-10-10-10/12-12-12-12-12-12-12-12/--|
A|--5-5-5-5---------------------------------------------------------|
D|------------------------------------------------------------------|

e|--------------------------------------------------------------------|
B|--------------------------------------------------------------------|
G|--12-12-12-12\10-10-10-10-------------------------------------------|
D|--------------------------12-12-12-12-12-12-12-12-----------5-5-5/--|
A|--------------------------------------------------3-3-3-3-3---------|
D|--------------------------------------------------------------------|

e|------------------------------------|
B|------------------------------------|
G|------------------------------------|
D|--7-7-7-7-7-5--3---5-5-5-5-5-5-5-5--|
A|------------------------------------|
D|------------------------------------|

e|------------------------------------------------------------------|
B|------------------------------------------------------------------|
G|------------------------------------------------------------------|
D|----------5-5-5-5-3-3-3-3-3-10-10-10-10/12-12-12-12-12-12-12-12/--|
A|--5-5-5-5---------------------------------------------------------|
D|------------------------------------------------------------------|

e|--------------------------------------------------------------------|
B|--------------------------------------------------------------------|
G|--12-12-12-12\10-10-10-10-------------------------------------------|
D|--------------------------12-12-12-12-12-12-12-12-----------5-5-5/--|
A|--------------------------------------------------3-3-3-3-3---------|
D|--------------------------------------------------------------------|

e|------------------------------------|
B|------------------------------------|
G|------------------------------------|
D|--7-7-7-7-7-5--3---5-5-5-5-5-5-5-5--|
A|------------------------------------|
D|------------------------------------|

[Chorus Altered] (x4)
e|-------------------------------------------------------------------------|
B|-------------------------------------------------------------------------|
G|-------------------------------------------------------------------------|
D|-3-3-3-3-3-3-3-3-10-10-10-10-10-10-10-10-8-8-8-8-8-8-8-8-8-8-8-8-8-8-8-8-|
A|-3-3-3-3-3-3-3-3-10-10-10-10-10-10-10-10-8-8-8-8-8-8-8-8-8-8-8-8-8-8-8-8-|
D|-3-3-3-3-3-3-3-3-10-10-10-10—10-10-10-10-8-8-8-8-8-8-8-8-8-8-8-8-8-8-8-8-|

[Outro]
e|----------------------------------------------|
B|----------------------------------------------|
G|----------------------------------------------|
D|--3--0--3--5--8--5--8--10----8--5--8----5--3--|
A|--3--0--3--5--8--5--8--10----8--5--8----5--3--|
D|--3--0--3--5--8--5--8--10----8--5--8----5--3--|


************************************

| /  Slide up
| \  Slide down

************************************

            
            
Suggest correction
Creating personal tab
Creating personal tab
You can edit any tab online and save it as your Personal.

You can edit, replace or remove any tab part or add personal notes – all changes will be seen only by you.

Personal tabs can be accessed anytime from any device, even offline.
Learn more »
comments
print report bad tab
17 comments total. Showing first comments. show 1 bad comment
0 reply
Hardcore_lvr 31 Mar 11, 2007 10:02 AM

Nice Tab!!!!!!!!!!!!!!!! 5 Stars!!!!!!!!!!!!!

0 reply
jack12500 131 Apr 18, 2007 11:20 AM

Great Tab another 5 stars

guest
You may want to rate the tab now too:
select rating
Wanna post a correction for this tab? Suggest correction