Oops, an error
Loading. Please wait.
We have an official Fully Alive tab made by UG professional guitarists. Check out the tab »
×

Fully Alive Acoustic tab

by Flyleaf
22,335 views 1 this week
4 commentsread comments
1 2 3 4 5
x 8
add to favorites
×
Save as Personal and add changes to this tab that will be seen only by you. Learn more ›
×
You can save this tab as Personal to edit and correct it or add notes. All changes will be seen only by you. Learn more »
launch autoscroll
font size
0
reset
how to read this tab
guitar tuner
edit
Autoscroll
slow
fast
+/-
esc
set tempo
stop
Author
Fully Alive Acoustic Tab
Album: Flyleaf
Tuning: Dropped D
By: Flyleaf

This is the acoustic version of fully alive, it is similar to the regular version, 
um please rate and comment, enjoy :P


Intro:
e[-------------------------------------------------------------------------]
B[-------------------------------------------------------------------------]
G[-------------------------------------------------------------------------]
D[-------------------------------------------------------------------------]
A[-------------------------------------------------------------------------]
D[-333-3-33333-3-333-3-33333-3-333-3-33333-3-333-3-33333-------------------]
   ...   .....   ...   .....   ...   .....   ...   ..... 


Verse:                                                 x4 Pre-Chorus:
e[-------------------------------------------------------|-----------------]
B[-------------------------------------------------------|-----------------]
G[-------------------------------------------------------|-----------------]
D[-------------------------------------------------------|-----------------]
A[-------------------------------------------------------|-----------------]
D[-777-7-77777-7-555-5-55555-5-333-3-33333-3-333-3-33333-|-333-3-33333-3---]
   ...   .....   ...   .....   ...   .....   ...   ..... 

Chorus:
e[---------------*---------------------------------------------------------]
B[---------------*---------------------------------------------------------]
G[-777777777777--101010----------------------------------------------------]
D[-777777777777--101010--888888--000000--55555555--33333333----------------]
A[-555555555555--8-8-8---888888--000000--55555555--33333333----------------]
D[-000000000000--*-------888888--000000--55555555--33333333----------------]
           "Ready*to*smile"      "Fully Alive" 

Pre-Verse:     
e[-------------------------------------------------------------------------]
B[-------------------------------------------------------------------------]
G[-------------------------------------------------------------------------]
D[-------------------------------------------------------------------------]
A[-------------------------------------------------------------------------]
D[-333-3-33333-------------------------------------------------------------]
   ...   .....   

Verse 2:                                  x4 Pre-Chorus:
e[-----------------------------------------|-------------------------------]
B[-----------------------------------------|-------------------------------]
G[-----------------------------------------|-------------------------------]
D[-----------------------------------------|-------------------------------]
A[-----------------------------------------|-------------------------------]
D[-777-7-77777-7-555-5-55555-5-333-3-33333-|--333-3-33333-3----------------]
   ...   .....   ...   .....   ...   .....  

[Repeat Chorus]

Bridge:
e[-------------------------------------------------------------------------]
B[-------------------------------------------------------------------------]
G[-7~--------10~------------------10~-7~-5~-7~--7~--------10~--------------]
D[-7~-777777-10~-1010101010101010-10~-7~-5~-7~--7~-777777-10~-101010101010-]
A[-5~-555555-8~--8-8-8-8-8-8-8-8--8~--5~-3~-5~--5~-555555-8~--101010101010-]
D[-0~-000000-0~--0-0-0-0-0-0-0-0--0~--0~-0~-0~--0~-000000-0~--8-8-8-8-8-8--]

Brigde: [cont'd]
e[-------------------------------------------------------------------------]
B[-------------------------------------------------------------------------]
G[---------10~-7~-5~--7~---------------------------------------------------]
D[-5555555-10~-7~-5~--7~---------------------------------------------------]
A[-5555555-8~--5~-3~--5~---------------------------------------------------]
D[-5555555-0~--0~-0~--0~---------------------------------------------------]

[Repeat Chorus]

  
Outro:
e[-------------------------------------------------------------------------]
B[-------------------------------------------------------------------------]
G[-------------------------------------------------------------------------]
D[-333333/5\3333/5\3/5\3---------------------------------------------------]
A[-333333/5\3333/5\3/5\3---------------------------------------------------]
D[-333333/5\3333/5\3/5\3---------------------------------------------------]

Thats it :P
  
   

  


            
            
Suggest correction
Creating personal tab
Creating personal tab
You can edit any tab online and save it as your Personal.

You can edit, replace or remove any tab part or add personal notes – all changes will be seen only by you.

Personal tabs can be accessed anytime from any device, even offline.
Learn more »
comments
print report bad tab
4 comments total. Showing first comments.
0 reply
ScaryKid13 220 Aug 14, 2009 03:03 PM

1000 views, one rating and zero comments?? wtf?

0 reply
JoeY fingers 10 Sep 07, 2009 06:48 PM

well i will say this. if you watch the buzznet vid patrick plays the intro on the A and D .

0 reply
ScaryKid13 220 Sep 08, 2009 01:37 PM

oh could u give me a link so i could hear, plez :O

guest
You may want to rate the tab now too:
select rating
Wanna post a correction for this tab? Suggest correction