Oops, an error
Loading. Please wait.

Great Love Tab

version 1
version 1

Whole song

1,988 views 1 this week
1 commentread comment
1 2 3 4 5
x 5
add to favorites
launch autoscroll
font size
0
reset
how to read this tab
guitar tuner
Autoscroll
slow
fast
+/-
esc
set tempo
stop
Help us to improve Ultimate-Guitar.com Take our survey!
×
Author
Drop D tuning, Key F#
DADGBe
Tabbed by Galva94

Intro
|-9--9--9--9--9--9--9--9--|-9--9--9--9--12-12-12----|
|-10-10-10-10-10-10-10-10-|-10-10-10-10-10-10-10-0--|
|-9--9--9--9--9--9--9--9--|-9--9--9--9--9--9--9-----|
|-------------------------|-------------------------|
|-------------------------|-------------------------|
|-------------------------|-------------------------|
  1     +     2     +       3     +     4     +

|-9--9--9--9--9--9--9--9--|-9--9--9--9--12-12-12----|
|-10-10-10-10-10-10-10-10-|-12-12-12-10-10-10-10-0--|
|-11-11-11-11-11-11-11-11-|-11-11-11-11-11-11-11----|
|-------------------------|-------------------------|
|-------------------------|-------------------------|
|-------------------------|-------------------------|
  1     +     2     +       3     +     4     +

|-------------------------|-------------------------|
|-10-10-10-10-10-10-10-10-|-12-12-12-12-10-10-10-\--|
|-11-11-11-11-11-11-11-11-|-11-11-11-11-11-11-11-\--|
|-12-12-12-12-12-12-12-12-|-12-12-12-12-12-12-12-12-|
|-------------------------|-------------------------|
|-------------------------|-------------------------|
  1     +     2     +       3     +     4     +

Pre chorus:
|-------------------------|
|-------------------------|
|-------------------------|
|-4--4--4--4--4--4--4--4--|
|-4--4--4--4--4--4--4--4--|
|-4--4--4--4--4--4--4--4--|
  1  +  2  +  3  +  4  +    

Chorus
|-------------------------|-------------------------|
|-------------------------|-------------------------|
|-------------------------|-------------------------|
|-0--0--0--0--0--0--0--0--|-2--2--2--2--2--2--2--2/-|
|-0--0--0--0--0--0--0--0--|-2--2--2--2--2--2--2--2/-|
|-0--0--0--0--0--0--0--0--|-2--2--2--2--2--2--2--2/-|
  1  +  2  +  3  +  4  +    1  +  2  +  3  +  4  +     
  Great love..              Setting the world on fire

|-------------------------|-----------------------------|
|-------------------------|-----------------------------|
|-------------------------|-------------9/11119-11111111|
|-9--9--9--9--9--9--9--9/-|-12-12-12-12-x-x-x-x-x-x-x-x-|
|-9--9--9--9--9--9--9--9/-|-12-12-12-12-7/9-9-7/9-9-9-9-|
|-9--9--9--9--9--9--9--9/-|-12-12-12-12-----------------|
  1  +  2  +  3  +  4  +    1  +  2  +  3   +   4   +
 I am in awe of who you are And its your-living for

VERSE 
(part1)

|-9--9--9--9--9--9--9--9--|-9--9--9--9--9--9--9-----|
|-10-10-10-10-10-10-10-10-|-10-10-10-10-10-10-10-0--|
|-9--9--9--9--9--9--9--9--|-9--9--9--9--9--9--9-----|
|-------------------------|-------------------------|
|-------------------------|-------------------------|
|-------------------------|-------------------------|
  1     +     2     +       3     +     4     +
  Cant you feel I’m         drawing near

|-9--9--9--9--9--9--9--9--|-9--9--9--9--12-12-12----|
|-10-10-10-10-10-10-10-10-|-12-12-12-10-10-10-10-0--|
|-11-11-11-11-11-11-11-11-|-11-11-11-11-11-11-11----|
|-------------------------|-------------------------|
|-------------------------|-------------------------|
|-------------------------|-------------------------|
  1     +     2     +       3     +     4     +
  The place that broke your hear cut up and 

|-------------------------|-------------------------|
|-10-10-10-10-10-10-10-10-|-10-10-10-10-10-10-10-10-|
|-11-11-11-11-11-11-11-11-|-11-11-11-11-11-11-11-11-|
|-12-12-12-12-12-12-12-12-|-12-12-12-12-12-12-12-12-|
|-------------------------|-------------------------|
|-------------------------|-------------------------|
  1     +     2     +       3     +     4     +
  Scarred                                        the


|-------------------------|-------------------------|
|-10-10-10-10-10-10-10-10-|-10-10-10-10-10-10-10-10-|
|-11-11-11-11-11-11-11-11-|-11-11-11-11-11-11-11-11-|
|-12-12-12-12-12-12-12-12-|-12-12-12-12-12-12-12-12-|
|-------------------------|-------------------------|
|-------------------------|-------------------------|
  1     +     2     +       3     +     4     +
  Down is breaking  my      body’s shaking

(part2)

|-9--9--9--9--9--9--9--9--|-9--9--9--9--9--9--9-----|
|-10-10-10-10-10-10-10-10-|-10-10-10-10-10-10-10-0--|
|-9--9--9--9--9--9--9--9--|-9--9--9--9--9--9--9-----|
|-------------------------|-------------------------|
|-------------------------|-------------------------|
|-------------------------|-------------------------|
  1     +     2     +       3     +     4     +
  Oh the secret         memories              you

|-9--9--9--9--9--9--9--9--|-9--9--9--9--12-12-12----|
|-10-10-10-10-10-10-10-10-|-12-12-12-10-10-10-10-0--|
|-11-11-11-11-11-11-11-11-|-11-11-11-11-11-11-11----|
|-------------------------|-------------------------|
|-------------------------|-------------------------|
|-------------------------|-------------------------|
  1     +     2     +       3     +     4     +
  Keep  ignoring the        soul that you can 

|-------------------------|-------------------------|
|-10-10-10-10-10-9--9--9--|-9-----------------------|
|-11-11-11-11-11-11-11-11-|-11-11-11-11-11-10-10-10-|
|-12-12-12-12-12-12-12-12-|-12-12-12-12-12-12-12-12-|
|-------------------------|-------------------------|
|-------------------------|-------------------------|
  1     +     2     +       3     +     4     +
  Sleep                                         


|-------------------------|-------------------------|
|-9--9--9--9--9--9--9--9--|-9--9--9--9--9--9--9--9--|
|-10-10-10-10-10-10-10-10-|-10-10-10-10-10-10-10-10-|
|-11-11-11-11-11-11-11-11-|-11-11-11-11-11-11-11-11-|
|-------------------------|-------------------------|
|-------------------------|-------------------------|
  1     +     2     +       3     +     4     +
  Down is breaking  my      body’s shaking

Pre Chorus (1x)

Chorus (2x)

Verse (1x)

Pre Chorus (1x)

Chorus (2x)

Bridge (2X)

|-------------------------|-------------------------|
|-------------------------|-------------------------|
|-------------------------|-------------------------|
|-------------------------|----12-12-12-12-11-11-11-|
|-x--12-12-12-12-11-11-11-|-11----------------------|
|-------------------------|-------------------------|
  1     +     2     +       3     +     4     +

|-------------------------|
|-------------------------|
|-------------------------|
|-4--4--4--4--4--4--4--4--|
|-4--4--4--4--4--4--4--4--|
|-4--4--4--4--4--4--4--4--|
  1  +  2  +  3  +  4  +    

Verse (1x) (sound like the intro)

Pre Chorus v2
4/4                       3/4
|-------------------------|------------------|
|-------------------------|------------------|
|-------------------------|------------------|
|-4--4--4--4--4--4--4--4--|-4--4--4--4--4----|
|-4--4--4--4--4--4--4--4--|-4--4--4--4--4----|
|-4--4--4--4--4--4--4--4--|-4--4--4--4--4----|

  1  +  2  +  3  +  4  +    1  +  2  +  3  + 

Chorus (2x)

Post Chorus 
|-------------------------|-------------------------|
|-------------------------|-------------------------|
|-------------------------|-------------------------|
|-9--9--9--9--9--9--9--9/-|-12-12-12-12-12-12-12-12-|
|-9--9--9--9--9--9--9--9/-|-12-12-12-12-12-12-12-12-|
|-9--9--9--9--9--9--9--9/-|-12-12-12-12-12-12-12-12-|
  1  +  2  +  3  +  4  +    1  +  2  +  3  +  4  +
  You are the one im look-  And I am yours forevermore

End with:

|-------------------------|
|-------------------------|
|-------------------------|
|-4--4--4--4--4--4--4--4\-|
|-4--4--4--4--4--4--4--4\-|
|-4--4--4--4--4--4--4--4\-|
  1  +  2  +  3  +  4  +    
  And I am yours forevermore
Suggest correction
comments
print report bad tab
1 comment total.
+1 reply
Shawnsand1 47 Dec 08, 2013 03:46 PM

Great job!

guest
You may want to rate the tab now too:
select rating
Wanna post a correction for this tab? Suggest correction