Oops, an error
Loading. Please wait.

Im So Sick bass

version 1
version 1

Whole song

Interactive

by Flyleaf
23,755 views 1 this week
5 commentsread comments
1 2 3 4 5
x 7
add to favorites
×
Save as Personal and add changes to this tab that will be seen only by you. Learn more ›
×
You can save this tab as Personal to edit and correct it or add notes. All changes will be seen only by you. Learn more »
launch autoscroll
font size
0
reset
guitar tuner
backing track
0:00
0:00
edit
Autoscroll
slow
fast
+/-
esc
set tempo
stop
Author
Difficulty
i believe this is the correct tabs for this song. It's a pretty simple and fun tune to 
Have fun with it.

Flyleaf: Im So Sick

Verse:
G|------------------------------------|
D|------------------------------------|
A|-------------------------------9-9-9|
D|-3-0-3-0-3-4-3-0-4/6-6-6------------|

Pre-Chorus
G|---------------------------------|
D|---------------------------------|
A|---------------------------------|
D|-8-8-8-8-8-8-8-8-8-8-8-8-8-8-8-8-|

G|---------------------------------|
D|---------------------------------|
A|---------------------------------|
D|-5-5-5-5-5-5-5-5-5-5-5-5-5-5-5-5-|

Outro
G|---------------------------------|
D|---------------------------------|
A|---------------------------------|
D|-8-8-8-8-8-8-8-8-8-8-8-8-8-8-8-8-|

            
            
Suggest correction
Creating personal tab
Creating personal tab
You can edit any tab online and save it as your Personal.

You can edit, replace or remove any tab part or add personal notes – all changes will be seen only by you.

Personal tabs can be accessed anytime from any device, even offline.
Learn more »
comments
print report bad tab
5 comments total. Showing first comments.
0 reply
SOADrox429 110 Sep 02, 2006 08:35 AM

i think this is wrong, isn't the intro all bass? i'm not completely sure, though

0 reply
guitarhero999 30 Jan 29, 2008 01:55 AM

yeah the intro is all bass(and singing obviously).. where he has "verse" is also the intro so just play that kick-ass
distortion part for the intro and verse

0 reply
mokmok111 74 Mar 22, 2009 02:40 PM

What is the point of a Dropped-d bass? You never have to play a chord!

guest
You may want to rate the tab now too:
select rating
Wanna post a correction for this tab? Suggest correction