Oops, an error
Loading. Please wait.

Im So Sick bass

version 2
version 2

Whole song

Interactive

by Flyleaf
14,111 views 15 this week
1 commentread comment
1 2 3 4 5
1 last vote to show rating
add to favorites
×
Save as Personal and add changes to this tab that will be seen only by you. Learn more ›
×
You can save this tab as Personal to edit and correct it or add notes. All changes will be seen only by you. Learn more »
launch autoscroll
font size
0
reset
guitar tuner
backing track
0:00
0:00
edit
Autoscroll
slow
fast
+/-
esc
set tempo
stop
Author
Difficulty
Flyleaf: “I’m So Sick”

Tabbed by: Jellokittee
Email: jellokittee@gmail.com

Tuning: Drop D (DADG)
Each of these sections is 4 measures in 4/4 time.

I don't think this tab is perfect yet, but it's a lot closer than the others I've seen. 

Main Riff:
G|------------------------------------|
D|------------------------------------| 10x
A|-------------------------------9-9-9|
D|-3-0-3-0-3-4-3-0-4/6-6-6------------|
I will break into your thoughts…                       

Chorus
G|---------------------------------|
D|---------------------------------|
A|---------------------------------|
D|-8-8-8-8-8-8-8-8-8-8-8-8-8-8-8-8-|
   sick, Infected with

G|---------------------------------|
D|---------------------------------|
A|---------------------------------|
D|-5-5-5-5-5-5-5-5-5-5-5-5-5-5-5-5-|
   where I live Let me live with-

G|---------------------------------|
D|---------------------------------|
A|---------------------------------|
D|-8-8-8-8-8-8-8-8-3---4---5---6---|
   without this    Empty bliss

G|-----------------------------|
D|-----------------------------|
A|-----------------------------|
D|-5-5-5-5-5-5-5-5-66---6-44---|
   Selfishness                       I’m so
G|------------------------------------|
D|------------------------------------|
A|-------------------------------9-9-9| 2x
D|-3-0-3-0-3-4-3-0-4/6-6-6------------|
   sick…                                                       

Verse:
G|----------------------------|
D|----------------------------|
A|----------------------------| 8x
D|-3-0-3-0-33---3-66---6-44---|
If you want more of this…

Repeat Chorus 1x

Verse:
G|-------------------------|
D|-------------------------|
A|-------------------------| 8x
D|-3-0-3-0-33--3-66--6-44--|
   Hear it…



Pre Chorus:
G|---------------------------------|
D|---------------------------------|
A|---------------------------------|
D|-8-8-8-8-8-8-8-8-8-8-8-8-8-8-8-8-|
   You sink into my

G|---------------------------------|
D|---------------------------------|
A|---------------------------------|
D|-5-5-5-5-5-5-5-5-5-5-5-5-5-5-5-5-|
   Clothes…

G|---------------------------------|
D|---------------------------------|
A|---------------------------------|
D|-8-8-8-8-8-8-8-8-3---4---5---6---|
   This invasion   makes me feel

G|---------------------------|
D|---------------------------|
A|---------------------------|
D|-5-5-5-5-5-5-5-5-66--6-44--|
Worthless,hopeless,sick I’m so

Repeat Chorus 1x

Main Riff:
G|------------------------------------|
D|------------------------------------|
A|-------------------------------9-9-9| 2x
D|-3-0-3-0-3-4-3-0-4/6-6-6------------|
I’m so sick…

Repeat Chorus 1x

Main Riff:
G|------------------------------------|
D|------------------------------------|
A|-------------------------------9-9-9| 3x
D|-3-0-3-0-3-4-3-0-4/6-6-6------------|
I’m so… sick…

G|------------------------------------|
D|------------------------------------|
A|-----------------------------9-9-9-9| 1x
D|-3-0-3-0-3-4-3-0-4/6-6-6------------|
I’m so… sick…



            
            
Suggest correction
Creating personal tab
Creating personal tab
You can edit any tab online and save it as your Personal.

You can edit, replace or remove any tab part or add personal notes – all changes will be seen only by you.

Personal tabs can be accessed anytime from any device, even offline.
Learn more »
Give kudos to tab author, rate the tab!
1 2 3 4 5
comments
print report bad tab
1 comment total.
0 reply
METALLICAFAN77 96 Jun 26, 2007 06:00 PM

the intro has a slighty deviated riff

guest
You may want to rate the tab now too:
select rating
Wanna post a correction for this tab? Suggest correction