Oops, an error
Loading. Please wait.

Im So Sick bass

version 3
version 3

Whole song

Interactive

by Flyleaf
46,704 views 9 this week
8 commentsread comments
1 2 3 4 5
x 35
add to favorites
×
Save as Personal and add changes to this tab that will be seen only by you. Learn more ›
×
You can save this tab as Personal to edit and correct it or add notes. All changes will be seen only by you. Learn more »
launch autoscroll
font size
0
reset
guitar tuner
backing track
0:00
0:00
edit
Autoscroll
slow
fast
+/-
esc
set tempo
stop
 Intro
G|------------------------------------|
D|------------------------------------|
A|-------------------------------9-9-9|
D|-3-0-3-0-3-4-3-0-4/6-6-6------------|2x

G|------------------------------------|
D|------------------------------------|
A|------------------------------------|
D|-3-0-3-0-3-4-3-0-4/6-6-6\-4-4-4-----|x2 

G|------------------------------------|
D|------------------------------------|
A|-------------------------------9-9-9|
D|-3-0-3-0-3-4-3-0-4/6-6-6------------|x4

 Pre-chorus
G|---------------------------------|
D|---------------------------------|
A|---------------------------------|
D|-8-8-8-8-8-8-8-8-8-8-8-8-8-8-8-8-|

G|---------------------------------|
D|---------------------------------|
A|---------------------------------|
D|-5-5-5-5-5-5-5-5-5-5-5-5-5-5-5-5-|

G|---------------------------------|
D|---------------------------------|
A|-----------------7-7-7-7-8-8-8-8-|
D|-8-8-8-8-8-8-8-8-----------------|

G|---------------------------------|
D|---------------------------------|
A|-----------------10-10-10-10-----|
D|-5-5-5-5-5-5-5-5-----------------|

 Back to the intro part.

(If you want...more of this...)

G|---------------------------------|
D|---------------------------------|
A|---------------------------------|
D|-3-3-3-0-0-0-0-0-0-6-6-6-4-4-4---|x8

(Im so sick...)

G|---------------------------------|
D|---------------------------------|
A|---------------------------------|
D|-8-8-8-8-8-8-8-8-8-8-8-8-8-8-8-8-|

G|---------------------------------|
D|---------------------------------|
A|---------------------------------|
D|-5-5-5-5-5-5-5-5-5-5-5-5-5-5-5-5-|

G|---------------------------------|
D|---------------------------------|
A|-----------------7-7-7-7-8-8-8-8-|
D|-8-8-8-8-8-8-8-8-----------------|

G|---------------------------------|
D|---------------------------------|
A|-----------------10-10-10-10-----|
D|-5-5-5-5-5-5-5-5-----------------|

Back to intro part.

G|---------------------------------|
D|---------------------------------|
A|---------------------------------|
D|-3-3-3-0-0-0-0-0-0-6-6-6-4-4-4---|x6

G|---------------------------------|
D|---------------------------------|
A|-------------------------------9-| (bend if you want)
D|-3-3-3-0-0-0-0-0-0-6-6-6-4-4-4---|

G|---------------------------------|
D|---------------------------------|
A|---------------------------------|
D|-0-0-0-0-0-0-6-6-6-4-4-4---------|

  (You sink into my clothes...)
  
G|---------------------------------|
D|---------------------------------|
A|---------------------------------|
D|-8-8-8-8-8-8-8-8-8-8-8-8-8-8-8-8-|

G|---------------------------------|
D|---------------------------------|
A|---------------------------------|
D|-5-5-5-5-5-5-5-5-5-5-5-5-5-5-5-5-|

G|---------------------------------|
D|---------------------------------|
A|-----------------7-7-7-7-8-8-8-8-|
D|-8-8-8-8-8-8-8-8-----------------|

G|---------------------------------|
D|---------------------------------|
A|-----------------10-10-10-10-----|
D|-5-5-5-5-5-5-5-5-----------------|x2

 (Im so...)

G|------------------------------------|
D|------------------------------------|
A|-------------------------------9-9-9|
D|-3-0-3-0-3-4-3-0-4/6-6-6------------|2x

G|---------------------------------|
D|---------------------------------|
A|---------------------------------|
D|-8-8-8-8-8-8-8-8-8-8-8-8-8-8-8-8-|

G|---------------------------------|
D|---------------------------------|
A|---------------------------------|
D|-5-5-5-5-5-5-5-5-5-5-5-5-5-5-5-5-|

G|---------------------------------|
D|---------------------------------|
A|-----------------7-7-7-7-8-8-8-8-|
D|-8-8-8-8-8-8-8-8-----------------|

G|---------------------------------|
D|---------------------------------|
A|-----------------10-10-10-10-----|
D|-5-5-5-5-5-5-5-5-----------------|

Outro
G|------------------------------------|
D|------------------------------------|
A|-------------------------------9-9-9|
D|-3-0-3-0-3-4-3-0-4/6-6-6------------| 




If you find any problems then make a new one. 1st tab.

            
            
Suggest correction
Creating personal tab
Creating personal tab
You can edit any tab online and save it as your Personal.

You can edit, replace or remove any tab part or add personal notes – all changes will be seen only by you.

Personal tabs can be accessed anytime from any device, even offline.
Learn more »
comments
print report bad tab
8 comments total. Showing first comments.
0 reply
ravenouscabbage 10 Jul 02, 2008 09:22 AM

awesome tab; worked perfectly for me. thanks

0 reply
mattel362 10 Jul 12, 2008 03:46 PM

very good tab.

100% accurate in my book

0 reply
onewaybassplaya 10 Sep 21, 2008 04:58 PM

nice tab...its absolutly perfect...really good job :)

guest
You may want to rate the tab now too:
select rating
Wanna post a correction for this tab? Suggest correction