Oops, an error
Loading. Please wait.

Im So Sick tab

version 3
version 3
by Flyleaf
21,105 views 3 this week
7 commentsread comments
1 2 3 4 5
x 11
add to favorites
×
Save as Personal and add changes to this tab that will be seen only by you. Learn more ›
×
You can save this tab as Personal to edit and correct it or add notes. All changes will be seen only by you. Learn more »
launch autoscroll
font size
0
reset
how to read this tab
guitar tuner
backing track
0:00
0:00
edit
Autoscroll
slow
fast
+/-
esc
set tempo
stop
----------------------------------------------------------------------------
                             I'm So Sick - Flyleaf
----------------------------------------------------------------------------
Tabbed by: Token716

Tuning: Dropped D

LEGEND:
b   - bend
=   - hold bend; also acts as connecting device for hammers/pulls
()  - note is tied to the prior note (used to extend a notes duration
      beyond one measure.
E   - Eigth note
Q   - Quarter note
H   - Half note


-=INTRO=- (Played by bass)
[6x] (12 bars/measures)


-=CHORUS=- 
                                   [4x]
e|----------------|------------------|
B|----------------|------------7-7-7-|
G|----------------|------------x-x-x-|
D|-3--0-3-0-3-4-3-|-0-4-/6-6-0-4-4-4-|
A|-3--0-3-0-3-4-3-|-0-4-/6-6-0-------|
D|-3--0-3-0-3-4-3-|-0-4-/6-6-0-------|


-=BUILD=-
                                                                       [2x]
e|-----------------|-----------------|-----------------|-----------------|
B|-----------------|-----------------|-----------------|-----------------|
G|-----------------|-----------------|-----------------|-----------------|
D|-8-8-8-8-8-8-8-8-|-8-8-8-8-8-8-8-8-|-5-5-5-5-5-5-5-5-|-5-5-5-5-5-5-5-5-|
A|-8-8-8-8-8-8-8-8-|-8-8-8-8-8-8-8-8-|-5-5-5-5-5-5-5-5-|-5-5-5-5-5-5-5-5-|
D|-8-8-8-8-8-8-8-8-|-8-8-8-8-8-8-8-8-|-5-5-5-5-5-5-5-5-|-5-5-5-5-5-5-5-5-|


-=VERSE 1=-
               E
e|-8-----|-(8)----|-7------|-(7)----|-10-----|-(10)---|--------|--------|
B|-------|-----7--|--------|--------|--------|--------|-10-----|-(10)---|
G|-------|--------|--------|--------|--------|--------|--------|--------|
D|-------|--------|--------|--------|--------|--------|--------|--------|
A|-------|--------|--------|--------|--------|--------|--------|--------|
D|-------|--------|--------|--------|--------|--------|--------|--------|
*Notes in parenthesis are tied to the prior note

                                      H   H     H  H
|-14-----|-(14)---|--------|--------|-10------|---------|---------|
|--------|--------|-5------|-(5)----|-----10--|-8--10---|-15------|
|--------|--------|--------|--------|---------|---------|---------|
|--------|--------|--------|--------|---------|---------|---------|
|--------|--------|--------|--------|---------|---------|---------|
|--------|--------|--------|--------|---------|---------|---------|


|---------------------|
|-15--15--15b16===15==|
|---------------------|
|---------------------|
|---------------------|
|---------------------|
*1/2 bend on the 3rd stroke and held for the 4th (feel it)


-=BUILD=-  [2x]


-=CHORUS=- [2x]


-=VERSE 2=-
   E                                                     Q
e|-10-----|--------|-10-----|-(10)---|-8------|-(8)----|-7------|-(7)----|
B|----10--|-(10)---|--------|--------|--------|------7-|--------|--------|
G|--------|--------|--------|--------|--------|--------|--------|--------|
D|--------|--------|--------|--------|--------|--------|--------|--------|
A|--------|--------|--------|--------|--------|--------|--------|--------|
D|--------|--------|--------|--------|--------|--------|--------|--------|

                                                         E
|-10------|-(10)----|---------|---------|-14------|-(14)----|
|---------|---------|-10------|-(10)----|---------|------13-|
|---------|---------|---------|---------|---------|---------|
|---------|---------|---------|---------|---------|---------|
|---------|---------|---------|---------|---------|---------|
|---------|---------|---------|---------|---------|---------|


|-14--14--14--14b15==|=14==14==14==14==|
|--------------------|-----------------|
|--------------------|-----------------|
|--------------------|-----------------|
|--------------------|-----------------|
|--------------------|-----------------|
*1/2 bend on the 4th stroke and held through the 5th, 6th, 7th, & 8th (feel it)


-=BUILD=- [x4]
  *2nd time through, replace last measure with the following...

e|-----------------|
B|---------7-7-7-7-|
G|---------x-x-x-x-|
D|-5-5-5-0-4-4-4-4-|
A|-5-5-5-0---------|
D|-5-5-5-0---------|


-=CHORUS=- [2x]


-=BUILD=-  [2x]


-=CHORUS=- [4x]
  *4th time through is played nearly the same except...

e|----------------|------------------|---|
B|----------------|------------7-7-7-|-7-|
G|----------------|------------x-x-x-|-x-|
D|-3--0-3-0-3-4-3-|-0-4-/6-6-0-4-4-4-|-4-|
A|-3--0-3-0-3-4-3-|-0-4-/6-6-0-------|---|
D|-3--0-3-0-3-4-3-|-0-4-/6-6-0-------|---|
                                       ^
                                       |
                                 ...1 extra chord

            
            
Suggest correction
Creating personal tab
Creating personal tab
You can edit any tab online and save it as your Personal.

You can edit, replace or remove any tab part or add personal notes – all changes will be seen only by you.

Personal tabs can be accessed anytime from any device, even offline.
Learn more »
comments
print report bad tab
7 comments total. Showing first comments. show 2 bad comments
+4 reply
astiggurl28 51 Nov 09, 2007 12:36 AM

this is the best tab actually for the song. **** you for saying that ed. go fist your ass you dumb fag

guest
You may want to rate the tab now too:
select rating
Wanna post a correction for this tab? Suggest correction