Oops, an error
Loading. Please wait.

Much Like Falling bass

version 2
version 2

Whole song

by Flyleaf
925 views 1 this week
no commentswrite comment
1 2 3 4 5
2 more votes to show rating
add to favorites
×
Save as Personal and add changes to this tab that will be seen only by you. Learn more ›
×
You can save this tab as Personal to edit and correct it or add notes. All changes will be seen only by you. Learn more »
launch autoscroll
font size
0
reset
guitar tuner
edit
Autoscroll
slow
fast
+/-
esc
set tempo
stop
Much Like Falling
Flyleaf
Bass Tab

Tuning- Drop D

I worked hard on this. Lol. There are other ways to play this,but i find this the best.  
Its hard at first but once you get the hang of it  it makes you look boss while playin 
it [;



Intro
G|-----------4--0-------|----------------4-4-4--------|
D|------0---------------|-4-4-4h5p--4-----------5-4-5-| x7
A|-0--2---2-------------|-----------------------------|
D|-----------------4-2-2|-------------0-0-------------|

(00:35) "so I keep waking up..."
G|-----------4--0------|-----------------------|
D|------0--------------|-----------------------|
A|-0--2---2------------|-----------------------|
D|-----------------4-2-|-/14-14-14-14-14-14-14-|

Chorus (00:38)
G|--------------------|-------------|-----------------|
D|--------------------|-------------|-----------------| x2
A|--------------------|-------------|-----------------|
D|-4-4-4-0-0-0-9-9-9--|-0-0-0-0-0-0-|-5-5-5-5-5-5-5-5-|

Bridge (00:51)
 "I don't want to be a..."
G|-------------------|-----------------|
D|-5-6-5---5/7-7-7-7-|-----------------|
A|-------7-----------|-----------------|
D|-------------------|-5-5-5-5-5-5-5-5-|

 "I don't want to be..."
G|-------------------|----------------|
D|-5-6-5---5/7-7-7-7-|----------------|
A|-------7-----------|----------------|
D|-------------------|-4-0-2--2-2-2-2-|

 "I want so much to change..."
G|------------------|------|----------|
D|-5-6-5---5/7--7-7-|--7~--|-77777777-|
A|-------7----------|------|----------|
D|------------------|------|----------|

 (01:11)
G|------------------------|
D|--9~--10~--7~--5/12-12~-| x2
A|------------------------|
D|------------------------|

 (01:18) "know..."
G|---------------------------------|
D|-5-5-5-5-5-5-5-5-5-5-5-5-5-5-5-5-|
A|---------------------------------|
D|---------------------------------|

 (01:21)
G|-------------------|--------------------------|
D|-------------------|--------------------------|
A|-------------------|--------------------------|
D|-9--0--2--2-2-2222-|-9--0--2--2-2/14-14-14-14-|

Chorus (01:27)
G|--------------------|-------------|-----------------|
D|--------------------|-------------|-----------------| x4
A|--------------------|-------------|-----------------|
D|-4-4-4-0-0-0-9-9-9--|-0-0-0-0-0-0-|-5-5-5-5-5-5-5-5-|

End:
G|-----------------|
D|-----------------|
A|-----------------|
D|-9~---0~---2b~~~-|
[far away from here]

            
            
Suggest correction
Creating personal tab
Creating personal tab
You can edit any tab online and save it as your Personal.

You can edit, replace or remove any tab part or add personal notes – all changes will be seen only by you.

Personal tabs can be accessed anytime from any device, even offline.
Learn more »
Give kudos to tab author, rate the tab!
1 2 3 4 5
comments
print report bad tab
guest
You may want to rate the tab now too:
select rating
Wanna post a correction for this tab? Suggest correction