Oops, an error
Loading. Please wait.

Ocean Waves tab

version 2
version 2

Whole song

Interactive

by Flyleaf
1,476 views 3 this week
1 commentread comment
1 2 3 4 5
x 4
add to favorites
×
Save as Personal and add changes to this tab that will be seen only by you. Learn more ›
×
You can save this tab as Personal to edit and correct it or add notes. All changes will be seen only by you. Learn more »
launch autoscroll
font size
0
reset
how to read this tab
guitar tuner
edit
Autoscroll
slow
fast
+/-
esc
set tempo
stop
-------------------------------------------------------------------------------
                            Ocean Waves - Flyleaf
-------------------------------------------------------------------------------
Tabbed by:Raeleyn
Email:rae_rae_12@yahoo.com 

Tuning:Drop D
  
  
I brought this song to guitar lessons so 'bout everything is right on here!
oh and sorry 'bout this but on some parts your gonna have to find the rythum
yourself but its not that hard to here!

                             4x| 
e|-----------------------------|
B|-----------------------------|
G|-----------------------------|  same thing, but palm mute it and play
D|-2-2-2-2-0-2-2-2-2-2-5-5-5-5-|  it 8 times!
A|-2-2-2-2-0-2-2-2-2-2-5-5-5-5-|
E|-2-2-2-2-0-2-2-2-2-2-5-5-5-5-|
                                                      2x |
e|-------------------------------------------------------|
B|-------------------------------------------------------|
G|-----------------11-11-11-11---5-5-5-4-5-5-5-4-7-7-7-7-|
D|-2-2-2-2-5-5-5-5-x--x--x--x----x-x-x-x-x-x-x-x-x-x-x-x-|
A|-2-2-2-2-5-5-5-5-9--9--9--9----3-3-3-2-3-3-3-2-5-5-5-5-|
E|-2-2-2-2-5-5-5-5-0--0--0--0----------------------------|
                             4x|
e|-----------------------------|
B|-----------------------------|
G|-----------------------------| same thing, but palm mute and play 8 times!
D|-2-2-2-2-0-2-2-2-2-2-5-5-5-5-|
A|-2-2-2-2-0-2-2-2-2-2-5-5-5-5-|
E|-2-2-2-2-0-2-2-2-2-2-5-5-5-5-|
                                                              2x|         4x|
e|--------------------------------------------------------------|------------|
B|--------------------------------------------------------------|------------|
G|-----------------11-11-11-11--5-5-5-5-4-4-4-4-7-7-7-7-5-5-5-5-|------------|
D|-2-2-2-2-5-5-5-5-x--x--x--x---x-x-x-x-x-x-x-x-x-x-x-x-x-x-x-x-|-2222-------|
A|-2-2-2-2-5-5-5-5-9--9--9--9---3-3-3-3-2-2-2-2-5-5-5-5-3-3-3-3-|-2222-------|
E|-2-2-2-2-5-5-5-5-0--0--0--0-----------------------------------|-2222-------|
                                                                          2x|
e|---------------------------------------------------------------------------|
B|---------------------------------------------------------------------------|
G|-----------------11-11-11-11--5-5-5-5-4-4-4-4-7-7-7-7-5-5-5-5--------------|
D|-2-2-2-2-5-5-5-5-x--x--x--x---x-x-x-x-x-x-x-x-x-x-x-x-x-x-x-x--------------|
A|-2-2-2-2-5-5-5-5-9--9--9--9---3-3-3-3-2-2-2-2-5-5-5-5-3-3-3-3--------------|
E|-2-2-2-2-5-5-5-5-0--0--0--0------------------------------------------------|
                                                      2x|
e|------------------------------------------------------|
B|------------------------------------------------------|
G|-----------------11-11-11-11--5-5-5-4-5-5-5-4-7-7-7-7-| 
D|-2-2-2-2-5-5-5-5-x--x--x--x---x-x-x-x-x-x-x-x-x-x-x-x-|
A|-2-2-2-2-5-5-5-5-9--9--9--9---3-3-3-2-3-3-3-2-5-5-5-5-|
E|-2-2-2-2-5-5-5-5-0--0--0--0---------------------------|

                                :) 


| /  slide up
| \  slide down
| h  hammer-on
| p  pull-off
| ~  vibrato
| +  harmonic
| x  Mute note

            
            
Suggest correction
Creating personal tab
Creating personal tab
You can edit any tab online and save it as your Personal.

You can edit, replace or remove any tab part or add personal notes – all changes will be seen only by you.

Personal tabs can be accessed anytime from any device, even offline.
Learn more »
comments
print report bad tab
1 comment total.
0 reply
stef2death 10 Nov 15, 2008 10:57 AM

this tab doesnt sound all that right andcorrect


the first part goes
22222 0 2222 54
22222 0 2222 54
22222 0 2222 54


its sumthin like that wit the rythym to the song

guest
You may want to rate the tab now too:
select rating
Wanna post a correction for this tab? Suggest correction