Oops, an error
Loading. Please wait.

Ocean Waves tab

version 4
version 4

Whole song

Interactive

by Flyleaf
226 views 1 this week
no commentswrite comment
1 2 3 4 5
3 more votes to show rating
add to favorites
×
Save as Personal and add changes to this tab that will be seen only by you. Learn more ›
×
You can save this tab as Personal to edit and correct it or add notes. All changes will be seen only by you. Learn more »
launch autoscroll
font size
0
reset
how to read this tab
guitar tuner
edit
Autoscroll
slow
fast
+/-
esc
set tempo
stop
-------------------------------------------------------------------------------
                             Ocean Waves By Flyleaf
-------------------------------------------------------------------------------
Tabbed by: Swatman360
Email: crystalline445@gmail.com

Drop D Tuning. Low to High - (D A D G B E)

I think this is the most accurate tab for this song.
Have fun and Rock on!

Intro - Played with a clean open string

E|---------|
B|---------|
G|---------|
D|---------|
A|0--------|
D|---------|  

Let ring until Chorus Kicks in


Chorus - The rest of the song is distorted         
                        4x
E|------------------------|
B|------------------------|
G|------------------------|
D|2-2-2-2-0-2-2-2-2-2-5-2-|
A|2-2-2-2-0-2-2-2-2-2-5-2-|
D|2-2-2-2-0-2-2-2-2-2-5-2-| 

Verse 1-                        
                        4x
E|------------------------|
B|------------------------|
G|------------------------|
D|2-2-2-2-0-2-2-2-2-2-5-2-| This can be played without the 4th string
A|2-2-2-2-0-2-2-2-2-2-5-2-|
D|2-2-2-2-0-2-2-2-2-2-5-2-| 
PM. . . . . . . . . . 

They're using some kind of weird wah effect here.
                     

              3x|           1x|
E|--------------|-------------|
B|--------------|-------------|  
G|--------------|-------------|                             
D|0-2--2-2-2-5-2|0-2--2-2-2/11| 
A|0-2--2-2-2-5-2|0-2--2-2-2/11| Listen closely, there's a slide,
D|0-2--2-2-2-5-2|0-2--2-2-2/11| This can be played without the 4th string aswell
  Don't let any of these ring! 


                                                                         2x
E|-------------------------------------------------------------------------|
B|-------------------------------------------------------------------------|
G|-----------------------------------11-11-11-11---5-5-5-4----5-5-5-4--7-7-|
D|2-2-2-2-2-2-2-2-5-5-5-5-5-5-5-5----x--x--x--x----x-x-x-x----x-x-x-x--x-x-|
A|2-2-2-2-2-2-2-2-5-5-5-5-5-5-5-5----9--9--9--9----3-3-3-2----3-3-3-2--5-5-|
D|2-2-2-2-2-2-2-2-5-5-5-5-5-5-5-5----0--0--0--0------------------------0-0-|  
 
Chorus-      
                        4x
E|------------------------|
B|------------------------|
G|------------------------|
D|2-2-2-2-0-2-2-2-2-2-5-2-|
A|2-2-2-2-0-2-2-2-2-2-5-2-|
D|2-2-2-2-0-2-2-2-2-2-5-2-| 



Verse 2- 
                        4x
E|------------------------|
B|------------------------|
G|------------------------|
D|2-2-2-2-0-2-2-2-2-2-5-2-| This can be played without the 4th string
A|2-2-2-2-0-2-2-2-2-2-5-2-|
D|2-2-2-2-0-2-2-2-2-2-5-2-| 
PM. . . . . . . . . . 

              3x|           1x|
E|--------------|-------------|
B|--------------|-------------|  
G|--------------|-------------|                             
D|0-2--2-2-2-5-2|0-2--2-2-2/11|  This can be played without the 4th string aswell
A|0-2--2-2-2-5-2|0-2--2-2-2/11|
D|0-2--2-2-2-5-2|0-2--2-2-2/11| 
  Don't let any of these ring!                        

                                                                                2x
E|--------------------------------------------------------------------------------|
B|--------------------------------------------------------------------------------|
G|-----------------------------------11-11-11-11---5-5-5-5-4-4-4-4-7-7-7-7-5-5-5-5|
D|2-2-2-2-2-2-2-2-5-5-5-5-5-5-5-5----x--x--x--x----x-x-x-x-x-x-x-x-x-x-x-x-x-x-x-x|
A|2-2-2-2-2-2-2-2-5-5-5-5-5-5-5-5----9--9--9--9----3-3-3-3-2-2-2-2-5-5-5-5-3-3-3-3|
D|2-2-2-2-2-2-2-2-5-5-5-5-5-5-5-5----0--0--0--0-----------------------------------|

Bridge- 
                                      
E|--------------------------------------------------------------------|
B|--------------------------------------------------------------------|
G|--------------------------------------------------------------------|
D|------------------------------22222-----22222----22222---------22222|
A|------------------------------22222-----22222----22222---------22222|
D|------------------------------22222-----22222----22222---------22222| 
  "Your not guaraunteed Tomorrow,Your not guaran   teed    to    morrow"

                                                                                2x
E|--------------------------------------------------------------------------------|
B|--------------------------------------------------------------------------------|
G|-----------------------------------11-11-11-11---5-5-5-5-4-4-4-4-7-7-7-7-5-5-5-5|
D|2-2-2-2-2-2-2-2-5-5-5-5-5-5-5-5----x--x--x--x----x-x-x-x-x-x-x-x-x-x-x-x-x-x-x-x|
A|2-2-2-2-2-2-2-2-5-5-5-5-5-5-5-5----9--9--9--9----3-3-3-3-2-2-2-2-5-5-5-5-3-3-3-3|
D|2-2-2-2-2-2-2-2-5-5-5-5-5-5-5-5----0--0--0--0-----------------------------------|
                                 
                                                                         
E|-------------------------------------------------------------------------|
B|-------------------------------------------------------------------------|
G|-----------------------------------11-11-11-11---5-5-5-4----5-5-5-4--7-7-|
D|2-2-2-2-2-2-2-2-5-5-5-5-5-5-5-5----x--x--x--x----x-x-x-x----x-x-x-x--x-x-|
A|2-2-2-2-2-2-2-2-5-5-5-5-5-5-5-5----9--9--9--9----3-3-3-2----3-3-3-2--5-5-|
D|2-2-2-2-2-2-2-2-5-5-5-5-5-5-5-5----0--0--0--0------------------------0-0-|  

E|---------------------------------------------------------------------|
B|---------------------------------------------------------------------|
G|-----------------------------------11-11-11-11---5-5-5-4----5-5-5-4\1|
D|2-2-2-2-2-2-2-2-5-5-5-5-5-5-5-5----x--x--x--x----x-x-x-x----x-x-x-x-x|
A|2-2-2-2-2-2-2-2-5-5-5-5-5-5-5-5----9--9--9--9----3-3-3-2----3-3-3-2\1|
D|2-2-2-2-2-2-2-2-5-5-5-5-5-5-5-5----0--0--0--0------------------------|
Same thing without the last 2 chords.

Well that's it!
Rock on!                          


| /  slide up
| \  slide down
| h  hammer-on
| p  pull-off
| ~  vibrato
| +  harmonic
| x  Mute note
===============================================================================

            
            
Suggest correction
Creating personal tab
Creating personal tab
You can edit any tab online and save it as your Personal.

You can edit, replace or remove any tab part or add personal notes – all changes will be seen only by you.

Personal tabs can be accessed anytime from any device, even offline.
Learn more »
Give kudos to tab author, rate the tab!
1 2 3 4 5
comments
print report bad tab
guest
You may want to rate the tab now too:
select rating
Wanna post a correction for this tab? Suggest correction