Oops, an error
Loading. Please wait.

Perfect bass

version 2
version 2

Whole song

Interactive

by Flyleaf
2,502 views 1 this week
no commentswrite comment
1 2 3 4 5
x 3
add to favorites
×
Save as Personal and add changes to this tab that will be seen only by you. Learn more ›
×
You can save this tab as Personal to edit and correct it or add notes. All changes will be seen only by you. Learn more »
launch autoscroll
font size
0
reset
guitar tuner
edit
Autoscroll
slow
fast
+/-
esc
set tempo
stop
Author
Difficulty
Perfect by Flyleaf
Bass Tab
Tabbed by chasethebarber

This is my first tab, so it's probably not 100% correct. Let me know if I screwed up

Intro/Verse
G-----------------------------------------|
D-----------------------------------------|
A-----2-222---2-222---2-22200--3322-------|
E---22------22------22-------33-----------|

Pre-chorus
G-----------------------------------------|
D-----------------------------------------|
A-----2-222---2-222---2-22200--33220033---|
E---22------22------22-------33-----------|

Chorus
G------------------------------------------|
D------------------------------------------|
A---22255555-----------00000---------------|
E-----------3333333-333-----00000000-------|

Interlude
G------------------------------------------|
D------------------------------------------|
A-----------55555555--------55555----------|
E---00000000--------00000000---------------|

Bridge
G------------------------------------------|
D------------------------------------------|
A------------------------------------------|
E---22-00-3333333--------------------------|


Intro x2
Pre-chorus x2
Chorus x2
Verse x2
Pre-chorus x2
Interlude x1
Chorus x4
Bridge x4
Verse x1
Pre-chorus x1
Chorus x4

            
            
Suggest correction
Creating personal tab
Creating personal tab
You can edit any tab online and save it as your Personal.

You can edit, replace or remove any tab part or add personal notes – all changes will be seen only by you.

Personal tabs can be accessed anytime from any device, even offline.
Learn more »
Give kudos to tab author, rate the tab!
1 2 3 4 5
comments
print report bad tab
guest
You may want to rate the tab now too:
select rating
Wanna post a correction for this tab? Suggest correction