Oops, an error
Loading. Please wait.

Perfect tab

version 2
version 2

Whole song

Interactive

by Flyleaf
8,412 views 1 this week
2 commentsread comments
1 2 3 4 5
x 8
add to favorites
×
Save as Personal and add changes to this tab that will be seen only by you. Learn more ›
×
You can save this tab as Personal to edit and correct it or add notes. All changes will be seen only by you. Learn more »
launch autoscroll
font size
0
reset
how to read this tab
guitar tuner
edit
Autoscroll
slow
fast
+/-
esc
set tempo
stop
h-hammer on
b-bend
/-slide

intro
e(---------------------------------------------------)
b(---------------------------------------------------)
g(---------------------------------------------------)
d(--4-4-/9-999-4-4-/9-999-4-4-/9-999-77-55-1010-99---)
a(--4-4-/9-999-4-4-/9-999-4-4-/9-999-77-55-1010-99---)
D(--4-4-/9-999-4-4-/9-999-4-4-/9-999-77-55-1010-99---)x2

verse
e(--------------7---------7-------7-----------7-----------7--------7777777--)
b(-7-----7-10------7-10------7h10---10--7h10-----10--7h10---10--10----------)
g(------------9---------9---------------------------------------------------)
d(--------------------------------------------------------------------------)
a(--------------------------------------------------------------------------)
D(--------------------------------------------------------------------------)

pre chorus
e(---------------------------------------------------)
b(---------------------------------------------------)
g(---------------------------------------------------)
d(--4-4-/9-999-4-4-/9-999-4-4-/9-999-77-55-1010-99---)
a(--4-4-/9-999-4-4-/9-999-4-4-/9-999-77-55-1010-99---)
D(--4-4-/9-999-4-4-/9-999-4-4-/9-999-77-55-1010-99---)

e(----------------------------------------------------)
b(----------------------------------------------------)
g(----------------------------------------------------)
d(--4-4-/9-999-4-4-/9-999-4-4-/9-999-7-7--101010------)
a(--4-4-/9-999-4-4-/9-999-4-4-/9-999-7-7--101010------)
D(--4-4-/9-999-4-4-/9-999-4-4-/9-999-7-7--101010------)

Chorus
e(-----------------------------------------------------)
b(-----------------------------------------------------)
g(-----------------------------------------------------)
d(-999-1212121212--5555555--555-77777--22222222--------)
a(-999-1212121212--5555555--555-77777--22222222--------)
D(-999-1212121212--5555555--555-77777--22222222--------)

 Verse

 Pre-Chorus

Interlude 1
e(-------------------------------------------------------------)
b(-------------------------------------------------------------)
g(-------------------------------------------------------------)
d(-------------------------------------------------------------)
a(-22222222-00000000-22222222-00000----------------------------)
D(-22222222-00000000-22222222-00000----------------------------)
pm ........ ........ ........ .....

Chorusx4

Bridge
e(----------------------------------------)
b(----------------------------------------)
g(--11-11---9-9-----12--12-12-12-12-12-12-)
d(--11-11---9-9-----12--12-12-12-12-12-12-)
a(--9--9----7-7-----10--10-10-10-10-10-10-)
D(----------------------------------------)

Pre chorus with riff below
(I had trouble hearing it but this is what I got)
e(------------12b---------12-13b-------12b--13b--10b-)
b(---------------------------------------------------)
g(--10101010-------101010----------------------------)
d(---------------------------------------------------)
a(---------------------------------------------------)
D(---------------------------------------------------)

chorusx4

end on
e(------)
b(------)
g(------)
d(--0---)
a(--0---)
D(--0---)

            
            
Suggest correction
Creating personal tab
Creating personal tab
You can edit any tab online and save it as your Personal.

You can edit, replace or remove any tab part or add personal notes – all changes will be seen only by you.

Personal tabs can be accessed anytime from any device, even offline.
Learn more »
comments
print report bad tab
2 comments total.
0 reply
black_roses_jmt 10 May 26, 2007 03:52 PM

i had trouble hearing the per-chorus too, are they full bends or half bends?

0 reply
RED777 10 Oct 01, 2013 03:20 PM

I already knew the intro...decided to cheat for the rest.

guest
You may want to rate the tab now too:
select rating
Wanna post a correction for this tab? Suggest correction