Oops, an error
Loading. Please wait.

Perfect tab

version 3
version 3

Whole song

Interactive

by Flyleaf
2,581 views 1 this week
1 commentread comment
1 2 3 4 5
3 more votes to show rating
add to favorites
×
Save as Personal and add changes to this tab that will be seen only by you. Learn more ›
×
You can save this tab as Personal to edit and correct it or add notes. All changes will be seen only by you. Learn more »
launch autoscroll
font size
0
reset
how to read this tab
guitar tuner
edit
Autoscroll
slow
fast
+/-
esc
set tempo
stop
Difficulty
Flyleaf Perfect
Easy Fun Song 
By THAT GUY! (tomsotyyo@aol.com) email for questions
Intro/ second part of verse 
E|----------------------------------|
B|----------------------------------|
G|------------------55--------------|
D|-44/99-44/99-7-5--55--------------|
A|-44/99-44/99-7-5--33--------------|
D|-44/99-44/99-7-5------------------|
Verse part 1 (bass only)"sick of circling the same road.."
Verse part 2 " so open the windows "
E|----------------------------------|
B|----------------------------------|
G|------------------55--------------|
D|-44/99-44/99-7-5--55--------------|
A|-44/99-44/99-7-5--33--------------|
D|-44/99-44/99-7-5------------------|
Chorus "perfect in weakness im only perfect "
E|-----------------------------------|
B|-----------------------------------|
G|-----------------------------------|
D|-77554455447722--------------------|
A|-77554455447722--------------------|
D|-77554455447722--------------------|
Repeat Verse part 1
Repeat Verse part 2
Chorus "perfect in weakness im only perfect "
E|-----------------------------------|
B|-----------------------------------|
G|-----------------------------------|
D|-77554455447722--------------------|
A|-77554455447722--------------------|
D|-77554455447722--------------------|
Bridge "i tried to kill you "
E|-----------------------------------|
B|-----------------------------------|
G|-----------------------------------|
D|11-99-11-777-----------------------|
A|11-99-11-777-----------------------|
D|-9-77--9-555-----------------------|
Then do the intro thing again then 
Chorus "perfect in weakness im only perfect "
E|-----------------------------------|
B|-----------------------------------|
G|-----------------------------------|
D|-77554455447722--------------------|
A|-77554455447722--------------------|
D|-77554455447722--------------------|
End on
E|-----------------------------------|
B|-----------------------------------|
G|-----------------------------------|
D|-0---------------------------------|
A|-0---------------------------------|
D|-0---------------------------------|
Suggest correction
Creating personal tab
Creating personal tab
You can edit any tab online and save it as your Personal.

You can edit, replace or remove any tab part or add personal notes – all changes will be seen only by you.

Personal tabs can be accessed anytime from any device, even offline.
Learn more »
Give kudos to tab author, rate the tab!
1 2 3 4 5
comments
print report bad tab
1 comment total.
0 reply
Aquateen803 92 Jul 27, 2010 03:13 PM

Dude the chorus chords r wrong. lol

guest
Wanna post a correction for this tab? Suggest correction