Oops, an error
Loading. Please wait.

So I Thought bass

version 3
version 3

Whole song

Interactive

by Flyleaf
774 views 1 this week
3 commentsread comments
1 2 3 4 5
2 more votes to show rating
add to favorites
×
Save as Personal and add changes to this tab that will be seen only by you. Learn more ›
×
You can save this tab as Personal to edit and correct it or add notes. All changes will be seen only by you. Learn more »
launch autoscroll
font size
0
reset
guitar tuner
edit
Autoscroll
slow
fast
+/-
esc
set tempo
stop
Verse(00:16 reapeat 2 times, I think)
G|--11-6-11-11-8-86-6-4-1-4-46----x2-----------------------|
D|---------------------------------------------------------|
A|---------------------------------------------------------|
D|---------------------------------------------------------|

On my knees... (1:00)
G|--11-6-11-6-11-11-11-11-11-8888-6666-444-1-444-6---x2----|
D|---------------------------------------------------------|
A|---------------------------------------------------------|
D|---------------------------------------------------------|

Chorus
G|--11-6-11-88888-4--x3--11111111-44444444-----------------|
D|---------------------------------------------------------|
A|---------------------------------------------------------|
D|---------------------------------------------------------|

And I'm praying... (2:17)
G|--88888888-66666666-444444444444-------------------------|
D|---------------------------------------------------------|
A|---------------------------------------------------------|
D|---------------------------------------------------------|

Guitar Solo (2:39, same as chorus)
G|--11-6-11-88888-4--x3--11111111-44444444-----------------|
D|---------------------------------------------------------|
A|---------------------------------------------------------|
D|---------------------------------------------------------|

Chorus (3:02)
G|--11-6-11-88888-4--x3--11111111-44444444-----------------|
D|---------------------------------------------------------|
A|---------------------------------------------------------|
D|---------------------------------------------------------|

And I'm praying... (3:29, keep repeating until the end)
G|--88888888-66666666-444444444444-------------------------|
D|---------------------------------------------------------|
A|---------------------------------------------------------|
D|---------------------------------------------------------|


Well I know it's not perfect but you get the idea. I decided to put this up since there 
any other tabs. If it's not right or you know how to make it better, email me 
ENJOY!

            
            
Suggest correction
Creating personal tab
Creating personal tab
You can edit any tab online and save it as your Personal.

You can edit, replace or remove any tab part or add personal notes – all changes will be seen only by you.

Personal tabs can be accessed anytime from any device, even offline.
Learn more »
Give kudos to tab author, rate the tab!
1 2 3 4 5
comments
print report bad tab
3 comments total.
0 reply
deveron 10 May 21, 2008 11:25 AM

whoever wrote this tab sucks balls. you should just give up on playing cause you suck.

0 reply
Pho3n1x 10 Jun 30, 2008 04:11 PM

i was about to say..
its not played on the top string

0 reply
moganda 10 Aug 29, 2008 02:28 PM

what would be the sence of saying drop D if you have it all on g haha you suck dude. no offence, but this tab sucks balls.

guest
You may want to rate the tab now too:
select rating
Wanna post a correction for this tab? Suggest correction