Oops, an error
Loading. Please wait.

Sorrow bass

version 1
version 1

Whole song

Interactive

by Flyleaf
4,931 views 1 this week
6 commentsread comments
1 2 3 4 5
1 last vote to show rating
add to favorites
×
Save as Personal and add changes to this tab that will be seen only by you. Learn more ›
×
You can save this tab as Personal to edit and correct it or add notes. All changes will be seen only by you. Learn more »
launch autoscroll
font size
0
reset
guitar tuner
edit
Autoscroll
slow
fast
+/-
esc
set tempo
stop
Song: Sorrow
Album: Flyleaf 
Band: Flyleaf
Tabbed By: Masterbasser36


Intro
G|----------------------------------------------------------|
D|------------------------------------------------------8---|
A|-3-5-------------3-5-----------3-5----------3-5-----------|
E|---------3-6-6-6---------3-6-6---------3-6----------3-----|
B|-----3-6-------------3-6-----------3-6----------3-6-------|

Verse I
G|-9-10------9-10---------232---------------------|
D|------10-8----------5----------------2----------|
A|----------------0-----0-------5-3~-1-----3-5~---|
E|------------------3-----------------------------|
B|----------------------------3-------------------|

Chorus
G|--------------------------------------------------|
D|--------------------------------------------------|
A|------------------------------------0~-1~-0~------|
E|-6-6-6---1~-6-6-6-----1~-6-6-6---1~---------------|
B|-------3------------3----------3-------------3~---|

Verse II
G|---9-10------9-10---------232---------------12---------------------|
D|-8------10-8----------5-------------10/12/14--14-12-10---2-3-------|
A|------------------0-----0------5--10-------------------1-----3-5---|
E|--------------------3------------8---------------------------------|
B|------------------------------3------------------------------------|

Bridge
G|---------------------------------------------------------------------------------------|
D|---------------------------------------------------------------------------------------|
A|--------0-0-0-1-1-1-1-1-1-------0-0-0-1-1---------0-0-0-1-1-1-1-1-1--------------------|
E|-3-3-3-------------------3-3-3-------------3-3-3--------------------1-1-1-1-1-1--/8~---|
B|-----------------------------------------3---------------------------------------------|

Outro
G|-------------------------------------------------------------------|
D|-------------------------------------------------------------------|
A|-3-5-------------3-5-----------3-5---------3-5---------5-5---------|
E|---------3-6-6-6---------3-6-6---------3-6---------3-6-------------|
E|-----3-6-------------3-6-----------3-6---------3-6---------3-------|

G|----------------------------|
D|----------------------------|
A|-3-5---------3-5------------|
E|---------3-6---------3-6~---|
B|-----3-6---------3-6--------|

Order of Play:
Intro 
Verse I
Chorus 
Verse II
Chorus
Bridge 
Chorus
Outro


Possibly my hardest tab to date, I was bound to make a mistake.
Please comment if you find any mistakes!
And also Rate!
Suggest correction
Creating personal tab
Creating personal tab
You can edit any tab online and save it as your Personal.

You can edit, replace or remove any tab part or add personal notes – all changes will be seen only by you.

Personal tabs can be accessed anytime from any device, even offline.
Learn more »
Give kudos to tab author, rate the tab!
1 2 3 4 5
comments
print report bad tab
6 comments total. Showing first comments.
+1 reply
Wrenched Veil 10 Mar 22, 2007 12:32 PM

ok... so what if u have a 4 string bass... i guess u could tune the E string to a B... n change all the other ones too. wow i answered my own question.

+1 reply
Masterbasser36 651 Mar 22, 2007 12:37 PM

i should tab it down for a 4 string bass, but your method wont work right away, in the verses to this song, all 5 strings are played

0 reply
Dunne147 10 May 30, 2008 01:42 PM

its in played Drop D, not on a five string. Pat (flyleaf's bass player) uses a 4 string. and none of the b string's notes being used are any lower than a D anyway.

guest
You may want to rate the tab now too:
select rating
Wanna post a correction for this tab? Suggest correction