Oops, an error
Loading. Please wait.

Sorrow Tab

version 1
version 1

Whole song

Interactive

28,270 views 9 this week
3 commentsread comments
1 2 3 4 5
accurate
x 11
add to favorites
launch autoscroll
font size
0
reset
how to read this tab
guitar tuner
Tab Pro tools
  • play this tab
  • loop segment
  • change instrument
  • show fretboard
  • metronome
×
Best way to learn
"Sorrow"
Autoscroll
slow
fast
+/-
esc
set tempo
stop
Contributor
This is my 4th tab, i think. well if there's something wrong with it, comment me and
me so i can fix it. I'll try to make it where u guys can understand it. if u can't, i'll
it to u in ur comment. oh and my Supernatural tab is not a solo tab. i'm sorry if i put 
it's the chorus part.

Flyleaf
Sorrow
Tuning:DADGBE
x=dead note

Intro
E------------------------------------------------------------------|
B------------------------------------------------------------------|
G------------------------------------------------------------------|
D--10-12-0-3-5-8-XX-10-12-0-3-5-8-X-10-12-0-3-5-8--10-12-0-3-5-7-8-|
A--10-12-0-3-5-8-XX-10-12-0-3-5-8-X-10-12-0-3-5-8--10-12-0-3-5-7-8-|
D--10-12-0-3-5-8-XX-10-12-0-3-5-8-X-10-12-0-3-5-8--10-12-0-3-5-7-8-|

Verse
E-1-1---------------------1-1--------------------------------------|
B-------1----3-3---5\1----------1----3-3---------------------------|
G------------------------------------------------------------------|
D-----2--2/3-----------------2--2/3--------------------------------|
A----------------3------1------------------------------------------|
D------------------------------------------------------------------|

1st Guitar
E-----------------------------------------------------------------|
B-3-3-3-----3-3-3-----3-3-3--5-5--8-8-8---------------------------|
G-----------------------------------------------------------------|
D-----------------------------------------------------------------|
A-----------------------------------------------------------------|
D-----------------------------------------------------------------|
..familier breath of my old lies(same goes for 2nd guitar)

2nd Guitar(Sameer's guitar with violin stick)
E-----------------------------------------------------------------|
B-----------------------------------------------------------------|
G-----------------------------------------------------------------|
D--5--7--0--10----------------------------------------------------|
A--5--7--0--10----------------------------------------------------|
D--5--7--0--10----------------------------------------------------|

1st guitar
E---1-1-----------------------------------------------------------|
B--------1-1---3-3---5-5------------------------------------------|
G-----------------------------------------------------------------|
D------2-----3----------------------------------------------------|
A-1----------------3-----5----------------------------------------|
D-----------------------------------------------------------------|
..Soon he will perferate the fabric..

Chorus                 x2
E---------------------------|-------------------------------------|
B--------------5-6-5-1-5----|-------------------------------------|
G--------------5-5-5-0-5----|-------------------------------------|
D-888-0-333333--------------|-888-0-333-777--888-777-0------------|
A-888-0-333333--------------|-888-0-333-777--888-777-0------------|
D-888-0-333333--------------|-888-0-333-777--888-777-0------------|


Verse 2
E-1-1-1----------------------1-1-----------------------------------|
B-------1------3-3----5-5-----------1----3-3-----------------------|
G------------------------------------------------------------------|
D---------2\3---------------------2---2\3--------------------------|
A-------------------3------1---------------------------------------|
D------------------------------------------------------------------|

1st Guitar
2nd Guitar
1st Guitar( soon he will..)
Chorus


1st Guitar(bridge/guitar solo)
E---------------------------------------------------------------------|
B---------------------------------------------------------------------|
G----9-10------------------9-10----------------9-10-------------------|
D-7-8----7-8-7----------7-8----7-8-7--------7-8----7-8-7----------7-8-|
A-------------8-7-8-10-8------------8-7-8-10------------8-7-8-10-8----|
D---------------------------------------------------------------------|

1st guitar cont.
E---------------------------------------------------------------------|
B-------------------------------------------------------------8-8-8-8-|
G-9-10------------------9-10----------------9-10----------------------|
D-----7-8-7----------7-8----7-8-7--------7-8----7-8-7-----------------|
A----------8-7-8-10-8------------8-7-8-10------------8-7-8-10-8-------|
D---------------------------------------------------------------------|

2nd Guitar(during the solo background)
E-------------------------------------------------------------------------|
B-------------------------------------------------------------------------|
G-------------------------------------------------------------------------|
D-555555-777777-8888888---555555-777777-88-0---555555-777777-888888888888-|
A-555555-777777-8888888---555555-777777-88-0---555555-777777-888888888888-|
D-555555-777777-8888888---555555-777777-88-0---555555-777777-888888888888-|

2nd Guitar cont.
E--------------------------------------------------------------------|
B--------------------------------------------------------------------|
G--------------------------------------------------------------------|
D-333333333333-10-10-------------------------------------------------|
A-333333333333-10-10-------------------------------------------------|
D-333333333333-10-10-------------------------------------------------|


Chorus              X2
E---------------------------|----------------------------------------|
B--------------5-6-5-1-5----|-----------------------------2\3-222----|
G--------------5-5-5-0-5----|----------------------------------------|
D-888-0-333333--------------|-888-0-333-777-888-777-000--------------|
A-888-0-333333--------------|-888-0-333-777-888-777-000--------------|
D-888-0-333333--------------|-888-0-333-777-888-777-000--------------|

End
E--------------------------------------------------------------------|
B--------------------------------------------------------------------|
G--------------------------------------------------------------------|
D-10-12-0-3-5-8-XX-10-12-0-3-5-8-X-10-12-0-3-5-8--10-12-0-3-5-8------|
A-10-12-0-3-5-8-XX-10-12-0-3-5-8-X-10-12-0-3-5-8--10-12-0-3-5-8------|
D-10-12-0-3-5-8-XX-10-12-0-3-5-8-X-10-12-0-3-5-8--10-12-0-3-5-8------|

E--------------------------------------------------------------------|
B--------------------------------------------------------------------|
G--------------------------------------------------------------------|
D-x-x-x-10-12-0-3-5-8--10-12-0-3-5-8---------------------------------|
A-x-x-x-10-12-0-3-5-8--10-12-0-3-5-8---------------------------------|
D-x-x-x-10-12-0-3-5-8--10-12-0-3-5-8---------------------------------|
..Joy will come...


And that's it. if something's wrong, please comment me and tell me.
comments
print report bad tab
3 comments total.
0 reply
CSI freak 1992 wrote on March 11 2008, 09:27 pm

you can probly listen a little better and i think it would make it sound better i mean i tried it the way you wrote it and it didn't sound very similar to the song

0 reply
The Cobra wrote on July 29 2009, 04:46 pm

very good... 5 stars

0 reply
RED777 wrote on October 12 2013, 08:34 pm

Just a note its called a bow not a "violin stick" haha! 5*

I want to post or [tab]
guest
You may want to rate the tab now too:
select rating
Please do not post tabs as comments. Select "correction" instead!