Oops, an error
Loading. Please wait.

Uncle Bobby tab

by Flyleaf
91 views 1 this week
no commentswrite comment
1 2 3 4 5
3 more votes to show rating
add to favorites
×
Save as Personal and add changes to this tab that will be seen only by you. Learn more ›
×
You can save this tab as Personal to edit and correct it or add notes. All changes will be seen only by you. Learn more »
launch autoscroll
font size
0
reset
how to read this tab
guitar tuner
edit
Autoscroll
slow
fast
+/-
esc
set tempo
stop
Flyleaf--Uncle Bobby
https://www.youtube.com/watch?v=4Fp4_bdwdwY

Please feel free to post corrections or comments, and rate if you find the Tab useful.

[Intro]  
[0:0-0:10]
e|-------------------------|----------|----------------------------|
B|-------------------------|----------|----------------------------|
G|-------------------------|----------|----------------------------|    Guitar 1
D|-------------------------|----------|----9---9---9---------------|
A|---3----7---10---7--3--2-|----------|----------------------------|
E|-----------------------0-|----------|----------------------------|

e|-------------------------|-------------------------|-------------------------|
B|-------------------------|-------------------------|-------------------------| 
G|----0--------------------|---------------0---------|-------------------------|    Guitar 2
D|---5---------------------|-5--5-4-2--0-0---5/7--0--|-------------------------|
A|-------------------------|-------------------------|-------------------------|
E|-------------------------|-------------------------|-------------------------|
[0:10-0:20]

e|-------------------------|----------|----------------------------|
B|-------------------------|----------|----12--12------------------| G1
G|-------------------------|----------|-------------19/21---19-16--|
D|-------------------------|----------|----------------------------|
A|---3----7---10---7--3--2-|----------|----------------------------|
E|-----------------------0-|----------|----------------------------|

e|-------------------------|-------------------------|-------------------------|
B|-------------------------|-------------------------|-------------------------| G2
G|----0----------------0---|---------------0---------|-------------------------|
D|---5----------------5----|-5--5-4-2--0-0---5/7--0--|-------------------------|
A|-------------------------|-------------------------|-------------------------|
E|-------------------------|-------------------------|-------------------------|

______________________________________________________________________________________________________________
[Verse]
[0:20-1:00]


e|-------------------------|----------|----------------------------|
B|-------------------------|----------|----------------------------|
G|-------------------------|----------|----------------------------| G1  
D|-------------------------|----------|----------------------------| [X4]
A|---3----7---10---7--3--2-|----------|---14-------17/19--19-------|
E|-----------------------0-|----------|----------------------------|

e|-------------------------|-------------------------|-------------------------|
B|-------------------------|-------------------------|-------------------------| G2  
G|----0----------------0---|---------------0---------|-------------------------| [X4]
D|---5----------------5----|-5--5-4-2--0-0---5/7--0--|-------------------------|
A|-------------------------|-------------------------|-------------------------|
E|-------------------------|-------------------------|-------------------------|


______________________________________________________________________________________________________________
[Chorus]
[1:00-1:20]
e|------------------|-----------------------|
B|------------------|-----------------------| G1
G|--17--------------|---16------------------| [x2]
D|--15--------------|---14----------19--21--|
A|------------------|-----------------------|
E|------------------|-----------------------|

e|------------------|-----------------------|
B|-------5------5---|-----------------------| G2
G|--9~----5-------5-|-----------------------| [x2]
D|--9~--------------|-----7---------10------|
A|--7~--------------|-----7---------10------|
E|--7---------------|---5-5-------8-8-------|

______________________________________________________________________________________________________________
[Verse2]
[1:20-1:30]

e|----------------|-------------------------------|
B|----------------|-------------------------------|  G1
G|----------------|-------------------------------| 
D|----------------|-------------------------------|
A|--2-------------|--3------7----10----7----3---2-|
E|--0-------------|-----------------------------0-|
-
e|-----------------|--------------------------------|
B|-----------------|--------------------------------| G2
G|--0------------0-|--------------------0-----------|
D|-5-----------5---|--2-4-5---5-4-2--0-0---5\4/5-2p0|
A|-----------------|--------------------------------|
E|-----------------|--------------------------------|

[1:30-1:50]
e|-------------|-----------------------------|---------------|----------------------------------------|
B|-------------|-----------------------------|---------------|----------------------------------------| G1
G|-------------|-----------------------------|---------------|----------------------------------------| 
D|-------------|-----------------------------|---------------|----------------------------------------|
A|-------------|------3---7---10---7--3---2--|---------------|-------------------14--14----17/19--19--|
E|-------------|-000----------------------0--|---------------|----------------------------------------|

e|-----------------|--------------------------------|------------|---------------------------------|
B|-----------------|--------------------------------|------------|---------------------------------| G2
G|--0------------0-|--------------------0-----------|--12-----12-|--------------------0------------|
D|-5-----------5---|--2-4-5---5-4-2--0-0---5\4/5h2p0|-9------9---|--2-4-5---5-4-2--0-0----5\4/5-2p0|
A|-----------------|--------------------------------|------------|---------------------------------|
E|-----------------|--------------------------------|------------|---------------------------------|

[1:50-2:00]
e|-------------------------|----------|----------------------------|
B|-------------------------|----------|----------------------------|
G|-------------------------|----------|----------------------------| G1  
D|-------------------------|----------|----------------------------|
A|---3----7---10---7--3--2-|----------|-------14--14----17/19--19--|
E|-----------------------0-|----------|----------------------------|

e|-----------------|--------------------------------|
B|-----------------|--------------------------------| G2
G|--0------------12|--------------------0-----------|
D|-5-----------9---|--2-4-5---5-4-2--0-0---5\4/5h2p0|
A|-----------------|--------------------------------|
E|-----------------|--------------------------------|

______________________________________________________________________________________________________________
[Chorus 2]
[2:00-2:30]

e|-------------------------------------------------------------------|
B|-------------------------------------------------------------------| G1 
G|---9--9---9-9---9--9---9-9-9-9-------------------------------------| X3
D|---9--9---9-9---9--9---9-9-9-9---7-7-7-7-7-7-7-7---*-*-*-*-*-*-*-*-|
A|---7--7---7-7---7--7---7-7-7-7---7-7-7-7-7-7-7-7---*-*-*-*-*-*-*-*-|
E|---7--7---7-7---7--7---7-7-7-7---5-5-5-5-5-5-5-5---8-8-8-8-8-8-8-8-|
                                      *=10
e|---------------------------------------------------------------------|
B|---------------------------------------------------------------------| G2
G|--17/19-19-19-19-------16--16-----16-----------19----19-17-16-12-----| X3
D|-----------------14-14--14--14-14--14--17-17-----17------------------|
A|---------------------------------------------------------------------|
E|---------------------------------------------------------------------|

[2:30-2:45]
e|------------------------------------------------------------------------|
B|------------------------------------------------------------------------| G1 
G|---9--9---9-9---9--9---9-9-9-9---------------------------------------5--| 
D|---9--9---9-9---9--9---9-9-9-9---7-7-7-7-7-7-7-7---*-*-*-*-*-*-*-*---5--|
A|---7--7---7-7---7--7---7-7-7-7---7-7-7-7-7-7-7-7---*-*-*-*-*-*-*-*---3--|
E|---7--7---7-7---7--7---7-7-7-7---5-5-5-5-5-5-5-5---8-8-8-8-8-8-8-8---3--|
                                      *=10
e|---------------------------------------------------------------------|
B|---------------------------------------------------------------------| G2
G|--17/19-19-19-19-------16--16-----16-----------19----19-17-16-12-----| 
D|-----------------14-14--14--14-14--14--17-17-----17------------------|
A|---------------------------------------------------------------------|
E|---------------------------------------------------------------------|

______________________________________________________________________________________________________________
[Verse 3]
[2:45-3:00]
e|--------------------------------------------------------------------|
B|--------------------------------------------------------------------| G1
G|--------------------------------------------------------------------| X2
D|--------------------------------------------------------------------|
A|---3-3-3-3-3-3-3-3-3-3-3-3-3-3-3-3--7-7-7-7-7-7-7-7-7-7-7-7-7-7-7-7-|
E|--------------------------------------------------------------------|

e|---------------------------------------------------------------------|
B|---------------------------------------------------------------------| G2
G|---------------------------------------------------------------------| X2
D|---------------------------------------------------------------------|
A|---------------------------------------------------------------------|
E|---------------------------------------------------------------------|

______________________________________________________________________________________________________________
[Chorus 3]
[3:00-3:40]

e|-------------------------------------------------------------------|
B|-------------------------------------------------------------------| G1 
G|---9--9---9-9---9--9---9-9-9-9-------------------------------------| X4
D|---9--9---9-9---9--9---9-9-9-9---7-7-7-7-7-7-7-7---*-*-*-*-*-*-*-*-|
A|---7--7---7-7---7--7---7-7-7-7---7-7-7-7-7-7-7-7---*-*-*-*-*-*-*-*-|
E|---7--7---7-7---7--7---7-7-7-7---5-5-5-5-5-5-5-5---8-8-8-8-8-8-8-8-|
                                      *=10
e|---------------------------------------|--------------------------------|
B|---------------------------------------|--------------------------------| G2
G|--17/19-19-19-19-------16--16-----16---|----------19----19-17-16-12-----| X4
D|-----------------14-14--14---14-14--14-|--17-17-----17------------------|
A|---------------------------------------|--------------------------------|
E|---------------------------------------|--------------------------------|

______________________________________________________________________________________________________________
[Solo/outro]
[3:40-3:52]
e|------------------------------|------------------------------------|-------------------|
B|------------------------------|------------------------------------|-------------------| G1
G|------------------------------|------------------------------------|-------------------| 
D|--3-3---3-3---3-3---3---3-3---|--7-7-7-7-7-7-7-7---*-*-*-*-*-*-*-*-|-------------------|
A|--3-3---3-3---3-3---3---3-3---|--7-7-7-7-7-7-7-7---*-*-*-*-*-*-*-*-|-------------------|
E|--1-1---1-1---1-1---1---1-1---|--5-5-5-5-5-5-5-5---8-8-8-8-8-8-8-8-|-------------------|
                                                           *=10
e|----------------|-----------------------------------------------------|
B|----------------|-----------------------------------------------------| G2
G|----------------|-----------------------------------------------------| 
D|-14----10--9--7-|--14~---10-10-12-10--9--5-5---9----7-7---------------|
A|----------------|-----------------------------------------------------|
E|----------------|-----------------------------------------------------|

[3:52-4:02]
e|------------------------------|------------------------------------|-------------------|
B|------------------------------|------------------------------------|-------------------| G1
G|------------------------------|------------------------------------|-------------------| 
D|--3-3---3-3---3-3---3---3-3---|--7-7-7-7-7-7-7-7---*-*-*-*-*-*-*-*-|-------------------|
A|--3-3---3-3---3-3---3---3-3---|--7-7-7-7-7-7-7-7---*-*-*-*-*-*-*-*-|-------------------|
E|--1-1---1-1---1-1---1---1-1---|--5-5-5-5-5-5-5-5---8-8-8-8-8-8-8-8-|-------------------|
                                                           *=10
e|----------------|-----------------------------------------------------|
B|----------------|-----------------------------------------------------| G2
G|----------------|-----------------------------------------------------| 
D|-14----10--9--7-|--14~---10-10-12-10--9--5-5---9----9/10\9~-----------|
A|----------------|-----------------------------------------------------|
E|----------------|-----------------------------------------------------|

[4:02-4:22]
e|------------------------------|------------------------------------|-------------------|
B|------------------------------|------------------------------------|-------------------| G1
G|------------------------------|------------------------------------|-------------------| 
D|--3-3---3-3---3-3---3---3-3---|--7-7-7-7-7-7-7-7---*-*-*-*-*-*-*-*-|---7---------------|
A|--3-3---3-3---3-3---3---3-3---|--7-7-7-7-7-7-7-7---*-*-*-*-*-*-*-*-|---7---------------|
E|--1-1---1-1---1-1---1---1-1---|--5-5-5-5-5-5-5-5---8-8-8-8-8-8-8-8-|---5---------------|
                                                           *=10
e|----------------|-----------------------------------------------------|
B|----------------|-----------------------------------------------------| G2
G|----------------|-----------------------------------------------------| 
D|-14----10--9--7-|--14~---10-10-12-10--9---------------2----~----------|
A|----------------|-------------------------------------0---------------|
E|----------------|-----------------------------------------------------|

************************************

| x   Dead note
| h   Hammer-on
| p   Pull-off
| /   Slide up
| \   Slide down
| ~   Vibrato
| PM  Palm mute

************************************



            
            
Suggest correction
Creating personal tab
Creating personal tab
You can edit any tab online and save it as your Personal.

You can edit, replace or remove any tab part or add personal notes – all changes will be seen only by you.

Personal tabs can be accessed anytime from any device, even offline.
Learn more »
Give kudos to tab author, rate the tab!
1 2 3 4 5
comments
print report bad tab
guest
You may want to rate the tab now too:
select rating
Wanna post a correction for this tab? Suggest correction