Oops, an error
Loading. Please wait.

Definitely Maybe Tab

version 3
version 3

Whole song

Interactive

29,597 views 9 this week
11 commentsread comments
1 2 3 4 5
x 17
add to favorites
launch autoscroll
font size
0
reset
how to read this tab
guitar tuner
×
Best way to learn
"Definitely Maybe"
Autoscroll
slow
fast
+/-
esc
set tempo
stop
Definitely Maybe
by FM Static
Tabbed by Washu

Pattern A
|-------------------------------------|
|-------------------------------------|
|-----1--------1--------1--------2----|
|---2---2----2---2----2---2----2---2--| 
|----------0--------------------------|
|-0-----------------0--------2--------|

Pattern B
     E     B     C#mi    A 
|---7-7---2-2----4-4----0-0---|
|---9-9---4-4----5-5----2-2---|
|---9-9---4-4----6-6----2-2---|
|---9-9---4-4----6-6----2-2---| 
|---7-7---2-2----4-4----0-0---| 
|-----------------------------|

Pattern C
  E5   B5   C#mi             A
|-----------4-4-4-4-4-4-4-4--0-0-0-0-0-0-0-0--|
|-----------5-5-5-5-5-5-5-5--2-2-2-2-2-2-2-2--|
|------4-4--6-6-6-6-6-6-6-6--2-2-2-2-2-2-2-2--|
|-2-2--4-4--6-6-6-6-6-6-6-6--2-2-2-2-2-2-2-2--|
|-2-2--2-2--4-4-4-4-4-4-4-4--0-0-0-0-0-0-0-0--|
|-0-0-----------------------------------------|

Pattern D
  E                B                C#mi             A
|-0-0-0-0-0-0-0-0--2-2-2-2-2-2-2-2--4-4-4-4-4-4-4-4--0-0-0-0-0-0-0-0--|
|-0-0-0-0-0-0-0-0--4-4-4-4-4-4-4-4--5-5-5-5-5-5-5-5--2-2-2-2-2-2-2-2--|
|-1-1-1-1-1-1-1-1--4-4-4-4-4-4-4-4--6-6-6-6-6-6-6-6--2-2-2-2-2-2-2-2--|
|-2-2-2-2-2-2-2-2--4-4-4-4-4-4-4-4--6-6-6-6-6-6-6-6--2-2-2-2-2-2-2-2--|
|-2-2-2-2-2-2-2-2--2-2-2-2-2-2-2-2--4-4-4-4-4-4-4-4--0-0-0-0-0-0-0-0--|
|-0-0-0-0-0-0-0-0-----------------------------------------------------|

Pattern E 
  E5   B5   E5   A5   E5   B5   F#5      B5
|-------------------------------------------------
|-------------------------------------------------
|------4-4-------2-2-------4-4-----------4-4-4-4--
|-2-2--4-4--2-2--2-2--2-2--4-4--4-4-4-4--4-4-4-4--
|-2-2--2-2--2-2--0-0--2-2--2-2--4-4-4-4--2-2-2-2--
|-0-0-------0-0-------0-0-------2-2-2-2-----------
  E5   A5   E5   B5   E5   A5   F#5      B5
 -------------------------------------------------|
 -------------------------------------------------|
 ------2-2-------4-4-------2-2-----------4-4-4-4--|
 -2-2--2-2--2-2--4-4--2-2--2-2--4-4-4-4--4-4-4-4--|
 -2-2--0-0--2-2--2-2--2-2--0-0--4-4-4-4--2-2-2-2--|
 -0-0-------0-0-------0-0-------2-2-2-2-----------|

Pattern F
  E5               A5               C#5              B5
|---------------------------------------------------------------------|
|---------------------------------------------------------------------|
|---------------------------------------------------------------------|
|------------------2-2-2-2-2-2-2-2--6-6-6-6-6-6-6-6--4-4-4-4-4-4-4-4--| 
|-2-2-2-2-2-2-2-2--0-0-0-0-0-0-0-0--4-4-4-4-4-4-4-4--2-2-2-2-2-2-2-2--|
|-0-0-0-0-0-0-0-0-----------------------------------------------------|

Pattern G
  E5      E    A5               C#5    C#mi  B5
|-------------------------------------------------------------|
|---------9-----------------------------5---------------------|
|---------9-----------------------------6---------------------|
|---------9----2-2-2-2-2-2-2-2--6-6-6-6-6----4-4-4-4-4-4-4-4--| 
|-2-2-2-2-7----0-0-0-0-0-0-0-0--4-4-4-4-4----2-2-2-2-2-2-2-2--|
|-0-0-0-0-----------------------------------------------------|

Song Order
A x 6
B x 2
C x 1
D x 1
E x 1
D x 2
F x 2
G x 2
C x 2 (w/ E5 octave higher)
D x 4 (double time)
 End on E
Suggest correction
comments
print report bad tab
11 comments total. Showing first comments.
+1 reply
jaz0n 10 Aug 26, 2004 08:00 PM

100% correct pitch/chordwise however in pattern E i reckon its
F#5 B5
D-4-4-4-4/9-9-9-9
A-4-4-4-4/9-9-9-9
E-2-2-2-2/7-7-7-7

0 reply
ckapanka 10 Dec 20, 2005 10:50 AM

awesome tab man!!! great job! a lil practice and i will be able to play it no sweat! :-D

Corey Kapanka

0 reply
ckapanka 10 Dec 20, 2005 12:39 PM

Hey, Im having trouble with pattern F... it just doesnt sound right, i think its because i dont have and drums, bass, or rythem. I'm just playing myself... if someone knows the rythem and drums for this song i would really really appreciate it if you could send it to me! I would appreciate it even more if you could send me the bass along with it.

guest
You may want to rate the tab now too:
select rating
Wanna post a correction for this tab? Suggest correction