Oops, an error
Loading. Please wait.

Moment Of Truth bass

version 2
version 2

Whole song

Interactive

1,963 views 3 this week
4 commentsread comments
1 2 3 4 5
1 last vote to show rating
add to favorites
×
Save as Personal and add changes to this tab that will be seen only by you. Learn more ›
×
You can save this tab as Personal to edit and correct it or add notes. All changes will be seen only by you. Learn more »
launch autoscroll
font size
0
reset
guitar tuner
edit
Autoscroll
slow
fast
+/-
esc
set tempo
stop
Author
Moment of truth
(With out capo)

may nagrequest kc eh, nde daw nya maintindihan kya aayusin...
madale nlg toh wag kyu magalala...
khit sino kakayanin toh!!! :-)


Intro:
No bass


Verse:
G|----------|----------|---------|-----------|  x4(just follow the beat)
D|----------|----------|---------|-----------| For those whop don't get this
A|-5--------|2---------|---------|-----------| evrytime you pluck count to 2
E|----------|----------|3--------|5----------| 
 Here we...  on the.    Of our..  Wid no way..

Prechorus:
G|-------------------------------------------------------------------------|
D|-------------------------------------------------------------------------|  
A|5-5-5-5-5-5-5-5----------------------------------------------------------|
E|----------------2-2-2-2-3-3-3-3------------------------------------------|

Chorus:

G|------------------------------------------|
D|------------------------------------------| x4(Follow the BEAT of the 
A|5-5-5-5-5-2-2-2-2-2-----------------------|   Drums or beat box)
E|--------------------3-3-3-3-3-5-5-5-5-5---|



well thats pretty much it!!!


I hope the who didn't understood this understands...
wahahaha!!!



hahaha!!!
nga pla tiff thanx!!!


MAE sana magets mu, pero mukang magulo pa rin eh...
hahaha...

ano toh GM??? hahaha!!!



for questions add me at friendster and ym: audwin_festin@yahoo.com

            
            
Suggest correction
Creating personal tab
Creating personal tab
You can edit any tab online and save it as your Personal.

You can edit, replace or remove any tab part or add personal notes – all changes will be seen only by you.

Personal tabs can be accessed anytime from any device, even offline.
Learn more »
Give kudos to tab author, rate the tab!
1 2 3 4 5
comments
print report bad tab
4 comments total. Showing first comments.
0 reply
audwin09 81 May 29, 2009 04:39 AM

sorry for some wrong spellings and wrong grammar, I was in a hurry while doing this...

:-)

0 reply
audwin09 81 May 29, 2009 04:42 AM

waah, mae sorry na!!!

0 reply
serenade_edy 332 Jul 28, 2009 11:56 AM

2 votes?haha btw i used powerchords in easy version kung marunong ka haha and ya ur grammar

guest
You may want to rate the tab now too:
select rating
Wanna post a correction for this tab? Suggest correction