Oops, an error
Loading. Please wait.

Moment Of Truth tab

version 2
version 2

Interactive

169,074 views 54 this week
6 commentsread comments
1 2 3 4 5
x 19
add to favorites
×
Save as Personal and add changes to this tab that will be seen only by you. Learn more ›
×
You can save this tab as Personal to edit and correct it or add notes. All changes will be seen only by you. Learn more »
launch autoscroll
font size
0
reset
how to read this tab
guitar tuner
edit
Autoscroll
slow
fast
+/-
esc
set tempo
stop
Author
standard tuning . im still getting use to tabbing so bare with me

[Intro]
 (guitar 1) these are the chords the rythm isnt hard you can get it
e|-----------------------------------------------------------|
B|-----------------------------------------------------------|
G|--6--6-6-6-------------------------------------------------|
D|--6--6-6-6-8-8-8-4-4-4-4-6-6-6-----------------------------|
A|--4--4-4-4-8-8-8-4-4-4-4-6-6-6-----------------------------|
E|-----------6-6-6-2-2-2-2-4-4-4-----------------------------|

 (guitar 2)
e|-------------------------------------------------------|
B|---6/4-----------4-4----6/4----------------------------|
G|-6-----6-5-6---6------6-----6-5-6---6-5----------------|
D|----------------------------------6-----6--------------|
A|-------------------------------------------------------|
E|-------------------------------------------------------|

 the rest of the song is the same chords as the intro just different strumming its not to figure out.
 this is the guitar near the end of the song
e|--------------------------------------------------------------------|
B|-----4-4--6-6---------4-4-------------4-4--6-6--4--------4----------|   play 2 times
G|-6-6-------------6-6-------6------6-6-------------6--6-6---3-6-6----|
D|------------------------------6----------------------------------6--|
A|--------------------------------------------------------------------|
E|--------------------------------------------------------------------|

than its the regular chords and thats it. i hope you like it.  this is my second tab by Shoemake

************************************

| /  Slide up

************************************
Suggest correction
Creating personal tab
Creating personal tab
You can edit any tab online and save it as your Personal.

You can edit, replace or remove any tab part or add personal notes – all changes will be seen only by you.

Personal tabs can be accessed anytime from any device, even offline.
Learn more »
comments
print report bad tab
6 comments total. Showing first comments.
0 reply
Free2Live 115 Jul 08, 2007 02:56 AM

hey this is a cool tab ay. good job even if you are still getting used to tabbing:)

0 reply
jahleigh 10 Feb 13, 2008 11:51 PM

hey nice job man, i wanna thank you for that.

0 reply
SK8nBASS 1,851 Dec 27, 2009 05:05 AM

good job man!

guest
You may want to rate the tab now too:
select rating
Wanna post a correction for this tab? Suggest correction