Oops, an error
Loading. Please wait.

Take Me As I Am Tab

version 1
version 1

Whole song

Interactive

43,561 views 27 this week
2 commentsread comments
1 2 3 4 5
excellent!
x 13
add to favorites
launch autoscroll
font size
0
reset
how to read this tab
guitar tuner
Autoscroll
slow
fast
+/-
esc
set tempo
stop
Help us to improve Ultimate-Guitar.com Take our survey!
×
Song-   Take Me As I Am
Artist- FM Static
Album-  Dear Diary


C	Am	F	G

-0-	-0-	-0-	-3-
-1-	-1-	-1-	-3-
-0-	-2-	-2-	-0-
-2-	-2-	-3-	-0-
-3-	-0-	-3-	-2-
---	---	---	-3-




Piano-


-----3-1-0-1-3-------3-1-0-1-3---------3-1-0-1-3---------3-1-0-1-0-----|
--1------------------1-------------------------------------------------|
-------------------------------------2---------------------------------|
-------------------------------------------------------3---------------|
-----------------------------------------------------------------------|
-----------------------------------------------------------------------|



VERSE 1 :

C			 Am	         F
This time I finally see the reason why I can't do this alone
C			        Am	 F
It took some time and concentration to believe it this I know
C				   Am           F
I need to build my faith sometimes but I am so comfortable in mind
C			    Am 	     F
I'm up there's no more time to try to mess with this design


PRE-CHORUS:

C	         G			Am		        F
Tonight's complete everyone's asleep and now I wanna say these words to you
C	    G		        Am  	         F
I'll be your hands take me as I am I just want to be with you


CHORUS:

C	        G
Take me as I am cause i'm going
        Am			          F
I was to scared to start now I'm to scared to let go
C	        G
Take me as I am cause I'm growing
           Am		         F
But it's so hard to tell when I'm not used this all


VERSE 2: (same as verse 1)

I lift my voice to sing out let the sound of my heart ring out
These hands aren't holding me down never again will I be without
I need to build my faith sometimes but I am so comfortable in mind
I'm up there's no more time to try to mess with this design
Suggest correction new What's this?
You can suggest a correction to this tab. Community and Mods will review your correction and vote to approve or reject it.
comments
print report bad tab
2 comments total.
0 reply
damonfinegan2 348 wrote on April 13 2015, 12:53 pm

For the C chord I play with the extra 3 on the top E, but otherwise great tab bro. I have wanted to play this song for years.

0 reply
damonfinegan2 348 wrote on July 26 2016, 12:44 am

I also want to note that to play the piano part on guitar correctly you have to play it like this:

E|----15-13-12-13-12----15-13-12-13-12-----15-13-12-13----15-13-12-13-12-|
B|-13----------------13--------------------------------------------------|
G|--------------------------------------14-------------------------------|
D|-----------------------------------------------------15----------------|

guest
You may want to rate the tab now too:
select rating
Please do not post tabs as comments. Select "correction" instead!