Oops, an error
Loading. Please wait.

Tonight Bass Tab

version 2
version 2

Whole song

Interactive

4,892 views 12 this week
2 commentsread comments
1 2 3 4 5
excellent!
x 5
add to favorites
launch autoscroll
font size
0
reset
guitar tuner
Tab Pro tools
  • play this tab
  • loop segment
  • change instrument
  • show fretboard
  • metronome
×
Best way to learn
"Tonight"
Autoscroll
slow
fast
+/-
esc
set tempo
stop
Contributor
Difficulty
novice
Fm Static
Tonight
tabbedd by ferdZ Tobats
add nyo q sa facebook tobatsdrive@yahoo.com
madalas ako online pag my tanong cge lng... ^^,

ung timing lng pagaralang nyo d aq sure eh pro sa mga tama ng nota 100% sure yan!!!

intro:
G|----------------------|
D|----------------------|
A|--6-------6-----------|
E|------4--------4------|

verse 1:
G|-----------------------------------|
D|-----------------------------------|
A|--6-----6--------------------------|
E|-----4------4---1---4---1---6------|

G|----------------|
D|----------------|
A|--6-------------|
E|------4---------|
 tonight...

verse 2:
G|------------------------------------------------------|
D|------------------------------------------------------|
A|--6(16x)--8(16x)--------------------------------------|
E|-----------------8(16x)--4(16X)--1(16X)---6(16X)------|



CHORUS:
G|---------------------------------|
D|---------------------------------|
A|--6--3-------6-----3-------------|
E|--------4--6----4------6---------|

intro:

verse 3:
G|----------------------------------------|
D|----------------------------------------|2x
A|--6(16x)--8(16x)------------------------|
E|-----------------8(16x)--4(16X)---------|

G|----------------------------------------|
D|----------------------------------------|
A|--6(16x)--8(16x)------------------------|
E|-----------------8(16x)--4(7x)----------|

G|---------------------------|
D|---------------------------|
A|---------------------------|
E|---1(16x)-----6(16x)-------|

chorus

instrumental:
other:
G|--------------------------------|
D|--------------------------------|
A|--6---------6-------------------|
E|------4----------4----1----6----|
then the last chorus
comments
print report bad tab
2 comments total.
+1 reply
gatecrusher wrote on September 27 2009, 08:37 pm

jejeje ^^, i forgot this line in verse 3, sorry...

When it hurt so bad sometimes
not having you here...
G|--------------------|
D|--------------------|
A|--------------------|
E|--1(16X)--6(16X)----|

0 reply
bellofsilence wrote on September 27 2009, 09:36 pm

it was a big help for me thanks a lot dude!!... perfectly same what i heard last night...

I want to post or [tab]
guest
You may want to rate the tab now too:
select rating
Please do not post tabs as comments. Select "correction" instead!