Oops, an error
Loading. Please wait.

Tonight tab

version 3
version 3

Interactive

24,245 views 99 this week
3 commentsread comments
1 2 3 4 5
x 3
add to favorites
×
Save as Personal and add changes to this tab that will be seen only by you. Learn more ›
×
You can save this tab as Personal to edit and correct it or add notes. All changes will be seen only by you. Learn more »
launch autoscroll
font size
0
reset
how to read this tab
guitar tuner
edit
Autoscroll
slow
fast
+/-
esc
set tempo
stop
Author
Difficulty
my first tab.. ^_^
any comment or question email me at aze_martinez@yahoo.com
tnx..

INTRO guitar1
:-2-4-2--0----0-----2-4-2---------------------------------:
:----------2----------------------------------------------:
:---------------------------------------------------------:
:---------------------------------------------------------:
:---------------------------------------------------------:
:---------------------------------------------------------:


:-2-4-2--0----0-----5-4-0---------------------------------:
:----------2----------------------------------------------:
:---------------------------------------------------------:
:---------------------------------------------------------:
:---------------------------------------------------------:
:---------------------------------------------------------:

:-2-4-2--0----0-----2-4-2---------------------------------:
:----------2----------------------------------------------:
:---------------------------------------------------------:
:---------------------------------------------------------:
:---------------------------------------------------------:
:---------------------------------------------------------:

:-2-4-2--0----4--2--2h0-----------------------------------:
:---------------------------------------------------------:
:---------------------------------------------------------:
:---------------------------------------------------------:
:---------------------------------------------------------:
:---------------------------------------------------------:
INTRO/verse guitar2 
:-----0--0--0---0-----------------------------------------:
:------0---0--0-------------------------------------------:
:---------------------------------------------------------:
:---2-----------------------------------------------------:
:-2-------------------------------------------------------:
:---------------------------------------------------------:

:-----0--0------------------------------------------------:
:------0--------------------------------------------------:
:---2-----------------------------------------------------:
:--2------------------------------------------------------:
:---------------------------------------------------------:
:---------------------------------------------------------:

CHORUS

:---------------------------------------------------------:
:---------------------------------------------------------:
:---1------2----6-----4-----------------------------------:
:---2------2----6-----4-----------------------------------:
:---2-----------4-----2-----------------------------------:
:---------------------------------------------------------:

            
            
Suggest correction
Creating personal tab
Creating personal tab
You can edit any tab online and save it as your Personal.

You can edit, replace or remove any tab part or add personal notes – all changes will be seen only by you.

Personal tabs can be accessed anytime from any device, even offline.
Learn more »
Give kudos to tab author, rate the tab!
1 2 3 4 5
comments
print report bad tab
3 comments total.
0 reply
Free2Live 115 Jul 21, 2008 03:39 PM

hey great tab for the guitar 1, guitar 2 is a bit wrong i rekon. also there is a pre-verse before the 2nd verse and the outro is missing. exellent for a first tab but just bits missing ay, if you check out one of the other tabs for this song its similar to yours but has the a few of the extra bits you've missed. you will get 5 stars from me when you put everything in cause the verse 1 was right on, the only thing i noticed with it was that its a slide to 5 from 4. lol, latrz

0 reply
peter182 164 Dec 08, 2008 03:51 PM

best tonight tab 5*

0 reply
guitar_heero 12 Feb 07, 2009 09:51 PM

hey we hav d same chords nice 1..=)

guest
You may want to rate the tab now too:
select rating
Wanna post a correction for this tab? Suggest correction