Oops, an error
Loading. Please wait.

2 Trees tab

version 1
version 1

Whole song

by Foals
17,704 views 48 this week
3 commentsread comments
1 2 3 4 5
x 7
add to favorites
×
Save as Personal and add changes to this tab that will be seen only by you. Learn more ›
×
You can save this tab as Personal to edit and correct it or add notes. All changes will be seen only by you. Learn more »
launch autoscroll
font size
0
reset
how to read this tab
guitar tuner
edit
Autoscroll
slow
fast
+/-
esc
set tempo
stop
Author
Difficulty
intermediate
Tuning: Standard

[Intro]
(Guitar 1)
e|---------------------------------------------------------------------------|
B|---------------------------------------------------------------------------|
G|---------------------------------------------------------------------------|
D|--------141414------141414------141414------141414------141414-------------|
A|---------------------------------------------------------------------------|
E|--121212------121212------121212------121212------121212-------------------|

(Guitar 2) 
e|---------------------------------------------------------------------------|
B|---------------------------------------------------------------------------|
G|---------------------------------------------------------------------------|
D|---4---4--4---4---4---4---4---4--4---4---4---4--4---4---4--4---4-----------| (x2)
A|---------------------------------------------------------------------------|
E|-3---3---3--3---3---3---3---3---3--5---5---5--5---5---5---5--5---5---------|

(Guitar 1)
e|---------------------------------------------------------------------------|
B|---------------------------------------------------------------------------|
G|------0h14--------0h14--------0h14----0h16-0h14----------------------------|
D|--0h17----0h17(x3)----0h17(x2)----0h17---------0h16-0h14(x5)-0h11(x2)------|
A|---------------------------------------------------------------------------|
E|---------------------------------------------------------------------------|

[Verse] 
(Play through i think 3 times all the way through.)
e|---------------------------------------------------------------------------|
B|---------------------------------------------------------------------------|
G|---------------------------------------------------------------------------|
D|--12-14-12-12-14-12-12-12-14-14-14-11-14-11-11-14-11-11-11-14-14-14--------|
A|---------------------------------------------------------------------------|
E|---------------------------------------------------------------------------|

e|---------------------------------------------------------------------------|
B|---------------------------------------------------------------------------|
G|---------------------------------------------------------------------------|
D|---14-----14--------14-14-14-11-14-11-11-14-11-11-11-14-14-14--------------|
A|-14--14-14--14-14-14-------------------------------------------------------|
E|---------------------------------------------------------------------------|

[Chorus]
(This bit is a bit messy to tab but easy enough when you work it out.
Play through a couple of times.)
e|---------------------------------------------------------------------------|
B|---------------------------------------------------------------------------|
G|-12(x6)11(x4)-9s11s9s7(x6)4(x5)----12(x5)-14-11(x4)9s11s9s7(x6)4(x5)-------|
D|---------------------------------------------------------------------------|
A|---------------------------------------------------------------------------|
E|---------------------------------------------------------------------------|

(After the chorus is played once through, this gets played by seperate guitar for the 
aswell)
e|---------------------------------------------------------------------------|
B|-14-14-14-14-14-10-10-10-12-10-12-10-12-12-12-12-12-15-15-15-15-15---------|
G|---------------------------------------------------------------------------|
D|---------------------------------------------------------------------------|
A|---------------------------------------------------------------------------|
E|---------------------------------------------------------------------------|

[Verse 2]
(The First part verse is played for some of the verse and the other guitar plays this 
tremelo pick if thats the right expression)
e|--17-19--------------------------------------------------------------------|
B|--------17----20-19--------------------------------------------------------|
G|--------------------16-18--------------------------------------------------|
D|-------------------------19------------------------------------------------|
A|---------------------------------------------------------------------------|
E|---------------------------------------------------------------------------|

(Chorus is then repeated,
There is then a nice instrumental part for rest of the song and it seems to go something 
this for most of it I think)
e|---------------------------------------------------------------------------|
B|---------------------------------------------------------------------------|
G|---0h14~--0h14~--0h18b--0h16~----------------------------------------------|
D|---------------------------------------------------------------------------|
A|---------------------------------------------------------------------------|
E|---------------------------------------------------------------------------|
(They just varie this out for the rest of the song with some big notes from the keyboard 
other guitars.)


************************************

| h  Hammer-on
| b  Bend
| ~  Vibrato 

************************************

            
            
Suggest correction
Creating personal tab
Creating personal tab
You can edit any tab online and save it as your Personal.

You can edit, replace or remove any tab part or add personal notes – all changes will be seen only by you.

Personal tabs can be accessed anytime from any device, even offline.
Learn more »
comments
print report bad tab
3 comments total.
0 reply
Tabzthecat 10 Jun 01, 2013 12:36 PM

For the instrumental part at the end:

e|--5---9---7------------------------------------------------------------------|
B|3---3---3---7---5---3-----------------------------------------------------------|
G|---------------------------------------------------------------------------|
D|---------------------------------------------------------------------------|
A|---------------------------------------------------------------------------|
E|---------------------------------------------------------------------------|

0 reply
alexleissle 10 Jan 05, 2015 12:28 AM

does anyone know the 2nd guitar/bass part for the chorus?

guest
You may want to rate the tab now too:
select rating
Wanna post a correction for this tab? Suggest correction