Oops, an error
Loading. Please wait.

Balloons Tab

version 1
version 1

Whole song

Interactive

22,580 views 27 this week
no commentswrite comment
1 2 3 4 5
worth learning
x 8
add to favorites
launch autoscroll
font size
0
reset
how to read this tab
guitar tuner
Autoscroll
slow
fast
+/-
esc
set tempo
stop
Help us to improve Ultimate-Guitar.com Take our survey!
×
Contributor
Dr-Bass 86
Artist: Foals
Song : Balloons
Tabber : Ben Wright
Email: wrighty_94@hotmail.co.uk

This is a simply brilliant song by foals. Its a bit rough but when i play along it 
alright. Really hard to tab though!

Intro

e-------------------------------------|
B-------------------------------------|
G-------------------------------------|
D-------------------------------------|   X6
A---15--15--15--15--15--15--15--15----|
E-17--17--17--17--17--17--17--17------|

Guitar 2

e---------------------------------|
B---------------------------------|
G---------------------------------|
D----------------10--12--10-10-10-|   X12
A--8--10-8-10-10------------------|
E---------------------------------|


Verse

e---------------------------------|
B---------------------------------|
G---------------------------------|
D----------------10--12--10-10-10-|   X8
A--8--10-8-10-10------------------|
E---------------------------------|

Chorus

e-17-17-15-15-15-12-12-10-10------|
B---------------------------------|
G---------------------------------|
D---------------------------------|
A---------------------------------|
E---------------------------------|
                                            X2
e-13-13-12-12-12-8-8-10-10--------|
B---------------------------------|
G---------------------------------|
D---------------------------------|
A---------------------------------|
E---------------------------------|

'The next bit'

e---------------------------------|
B---------------------------------|
G---------------------------------|
D---------------------------------|      X2
A--12-----------------------------|
E---------------------------------|

Chorus

e-17-17-15-15-15-12-12-10-10------|
B---------------------------------|
G---------------------------------|
D---------------------------------|
A---------------------------------|
E---------------------------------|
                                            X4
e-13-13-12-12-12-8-8-10-10--------|
B---------------------------------|
G---------------------------------|
D---------------------------------|
A---------------------------------|
E---------------------------------|

Outro

e-17-17-15-15-15-12-12-10-10------|
B---------------------------------|
G---------------------------------|
D---------------------------------|
A---------------------------------|
E---------------------------------|
                                            X2
e-13-13-12-12-12-8-8-10-10--------|
B---------------------------------|
G---------------------------------|
D---------------------------------|
A---------------------------------|
E---------------------------------|

They use effects in this of course, but i really cant be bothered to add them on this tab.
comments
print report bad tab
I want to post or [tab]
guest
You may want to rate the tab now too:
select rating
Please do not post tabs as comments. Select "correction" instead!