Oops, an error
Loading. Please wait.

Balloons bass

version 4
version 4

Whole song

Interactive

by Foals
1,372 views 6 this week
1 commentread comment
1 2 3 4 5
x 3
add to favorites
×
Save as Personal and add changes to this tab that will be seen only by you. Learn more ›
×
You can save this tab as Personal to edit and correct it or add notes. All changes will be seen only by you. Learn more »
launch autoscroll
font size
0
reset
guitar tuner
edit
Autoscroll
slow
fast
+/-
esc
set tempo
stop
Author
Foals
Balloons

Standard tuning

Main riff - essentially entire song
/bass enters at 0:31

G|-------------------------------------------------------------------------|
D|----3-3-2-2---------------3-3-2-2----------------3-3-2-2/5---------------|
A|-------------3-3h5--55-------------3-3h5--55----------------3-3h5--55----|
E|-------------------------------------------------------------------------|

G|--------------------------||
D|--3-3-2-2/5--5-5h7777-----||
A|--------------------------||
E|--------------------------||

Middle 8
/bass enters at 1:34

-each note lasts for 4 beats-
G|---------------------------------------------------------------||
D|---------------------------------------------------------------||
A|--5----5----5----5----5----5----5----5----5----5----5----5-----||
E|---------------------------------------------------------------||

Then back to the main riff at 2:11
Suggest correction
Creating personal tab
Creating personal tab
You can edit any tab online and save it as your Personal.

You can edit, replace or remove any tab part or add personal notes – all changes will be seen only by you.

Personal tabs can be accessed anytime from any device, even offline.
Learn more »
Give kudos to tab author, rate the tab!
1 2 3 4 5
comments
print report bad tab
1 comment total.
0 reply
jpfleming 190 Jun 06, 2015 01:00 PM, edited at 05:01 pm

Great tab dude. My only slight correction would be that he plays it in drop D, and the D's (A-5) in the verse are an octave lower

guest
You may want to rate the tab now too:
select rating
Wanna post a correction for this tab? Suggest correction