Oops, an error
Loading. Please wait.

Black Gold bass

version 2
version 2

Whole song

  • The other tab missed the mark a lot on the octave ... Show more

Interactive

by Foals
31 views 6 this week
no commentswrite comment
1 2 3 4 5
2 more votes to show rating
add to favorites
×
Save as Personal and add changes to this tab that will be seen only by you. Learn more ›
×
You can save this tab as Personal to edit and correct it or add notes. All changes will be seen only by you. Learn more »
launch autoscroll
font size
0
reset
guitar tuner
edit
Autoscroll
slow
fast
+/-
esc
set tempo
stop
About this tab version
The other tab missed the mark a lot on the octave shifts and other key details of the song – this version is much more complete. Was this info helpful? Yes No
For the intro/verse/pre-chorus sections, the notes follow the drum and guitar pattern. You'll get a sense of 
it listening through the song once or twice.

BPM: 131

[Intro]                                      (Last time through intro)
                                                
G|------------------------------|            G|-----------------------------------|
D|----9-------------------------|            D|----9------------------------------|
A|--------7---------------------| (x5)       A|--------7--------------------------|
E|--7---5---3--3--3-3-3-3h5--5--|            E|--7---5---3--3--3--3-3-3-3-3-0--0--|

(If you want to put something extra on the intro/verse lines, you can also add a chord:)

G|--------------------------|
D|----9---------------------|
A|--------7-5-5--5-5/7-7----|
E|--7---5---3-3--3-3/5-5----|

[Verse 1] 
(0:22; “Top of the world...”)
G|------------------------------|------------------------------------|
D|----9-------------------------|----9-------------------------------|
A|--------7---------------------|--------7---------------------5-7---| (x2)
E|--7---5---3--3--3-3-3-3h5--5--|--7---5---3--3--3--3--3h5-5-5-------|

G|-------------------------------|-----------------------------------|
D|----9--------------------------|----9------------------------------|
A|--------7----------------------|--------7--------------------------|
E|--7---5---3--3--3-3--3-3h5--5--|--7---5---3--3--3--3-3-3--3-3-0-0--|

[Pre-Chorus]
G|-------------------------------|--------------------------7h9---|
D|----9--------------------------|----9----------5--7--7-7--------|
A|--------7----------------------|--------7-----------------------|
E|--7---5---3--3--3-3--3-3h5--5--|--7---5---3-3-------------------|

[Chorus]
G|---11--11--11--11--11--11--11--11--9--9--9--9--7--7--7--7--|
D|--9---9---9---9---9---9---9---9---7--7--7--7--5--5--5--5---|
A|-----------------------------------------------------------| (x4)
E|-----------------------------------------------------------|

[Post-Chorus]
G|------------------------------|-----------------------------|
D|----9-------------------------|----9------------------------|
A|--------7---------------------|--------7--------------------|
E|--7---5---3--3--3-3-3-3h5--5--|--7---5---3-3--3-3--3-3-0-0--|

[Verse 2] 
(1:29; “Top of the world...”)
G|-------------------------------|-------------------------------|
D|----9--------------------------|----9--------------------------|
A|--------7----------------------|--------7----------------5-7---| (x2)
E|--7---5---3--3--3-3-3-3h5-5----|--7---5---3-3--3-3-3h5-5-------|

G|-------------------------------|-------------------------------|
D|----9--------------------------|----9--------------------------|
A|--------7----------------------|--------7----------------------|
E|--7---5---3--3--3-3-3-3h5-5----|--7---5---3--3--3-3-3-3-0-0----|

[Pre-Chorus 2]
G|------------------------------|------------------7--7h9-9--|
D|----9-------------------------|----9----------9------------|
A|--------7---------------------|--------7-------------------|
E|--7---5---3--3--3-3-3-3h5-5---|--7---5---3-3---------------|

[Chorus]
G|---11--11--11--11--11--11--11--11--9--9--9--9--7--7--7--7--|
D|--9---9---9---9---9---9---9---9---7--7--7--7--5--5--5--5---|
A|-----------------------------------------------------------| (x10)
E|-----------------------------------------------------------|

[Bridge] 
(3:11)
G|-----------------------------------|
D|-----------------------------------|
A|-----------------------------------| (x11)
E|--7-7-7-7-7-7-7-7-7-7-7-7-7-7-7-7--|

G|-----------------------------------|
D|----------------------------5-5/\5-|
A|-----------------------------------|
E|--7-7-7-7-7-7-7-7-7-7-7-7-7--------|

(3:55; "Now that spring is finally here...")
G|---------------------------------------------------------|
D|--------------------------7-5-5-5-5-5-5-5-5-7-7-7-7-9/---|
A|--7-7-7-7-7-7-7-7-9-9-9-9--------------------------------| (x16)
E|---------------------------------------------------------|

(5:45)
G|-----------------------------------|
D|--9--------------------------------|
A|-----------------------------------|
E|----7-7-7-7-7-7-7-7-7-7-7-7-7-7-7--|

G|-----------------------------------|
D|-----------------------------------|
A|-----------------------------------| (x3)
E|--7-7-7-7-7-7-7-7-7-7-7-7-7-7-7-7--|

Start fading third time through, then rest until end.


************************************

| h  Hammer-on
| /  Slide up

************************************

            
            
Suggest correction
Creating personal tab
Creating personal tab
You can edit any tab online and save it as your Personal.

You can edit, replace or remove any tab part or add personal notes – all changes will be seen only by you.

Personal tabs can be accessed anytime from any device, even offline.
Learn more »
Give kudos to tab author, rate the tab!
1 2 3 4 5
comments
print report bad tab
guest
You may want to rate the tab now too:
select rating
Wanna post a correction for this tab? Suggest correction