Oops, an error
Loading. Please wait.

Inhaler Bass Tab

version 2
version 2

Whole song

Interactive

14,381 views 30 this week
no commentswrite comment
1 2 3 4 5
x 7
add to favorites
launch autoscroll
font size
0
reset
guitar tuner
Autoscroll
slow
fast
+/-
esc
set tempo
stop
Help us to improve Ultimate-Guitar.com Take our survey!
×
Author
Difficulty
Tuning
intermediate
D A D G B E
Tabbed by: AnErasedCitizen

Tuning: Drop D

Intro x1

G|---------------------------------------------------------------------------|
D|---------------------------------------------------------------------------|
A|-------------------------3-5-5---------------------------------------------|
D|----0-0----0-0----0-0------------------------------------------------------|

Intro Part 2 x1
G|---------------------------------------------------------------------------|
D|---------------------------------------------------------------------------|
A|---------------------------------------------------------------------------|
D|-0-00-0-5/7-2/5--0-00-0-5/7-2/5--0-00-0-5/7-2/5--0-00-0-5-7-3--------------|

Verse x4
G|-------------------------------------------------------------|
D|-------------------------------------------------------------|
A|-------------------------------------------------------------|
D-0-00-0-5/7-2/5--0-00-0-55-7-3--8-88-8-8-88-5-55-5-5-7-5-3-5--|

Bridge or Pre-Chorus
G|---------------------------------------------------------------------------|
D|---------------------------------------------------------------------------|
A|---------------------------------------------------------------------------|
D|-5555-5-55-5--77777-7-77-7--88888-8-88-8--1010101010-10-1010-8-------------|

G|----------------------------------------------------------------|
D|----------------------------------------------------------------|
A|----------------------------------------------------------------|
D|-55555-5-55-5--77777-7-77-7-88888-8-88-8-1010101010-10-1010-12--|

G|---------------------------------------------------------------------------|
D|---------------------------------------------------------------------------|
A|---------------------------------------------------------------------------|
D|-55555-5-55-5--77777-7-77-7-88888-8-88-8-1010101010-10-1010-8--------------|

G|---------------------------------------------------------------------------|
D|---------------------------------------------------------------------------|
A|---------------------------------------------------------------------------|
D|-55555-5-55-5--77777-7-77-7-88888-8-88-8--10---------------------12--------|

Chorus x2
G|----------------------------------------------------------------------------|
D|-------------3------------------------------3-----5--3-5-3-5----------------|
A|--------3-5-----5-3--------------------3-5-----5----------------------------|
D|-0-3-5---------------3-5-3-5-3--0-3-5---------------------------------------|

Then it's a break, and after that you do the whole thing again.

Thingy after the second chorus x4
G|----------------------10-----10--------------------------------------------|
D|-12-12-12-12-12-12-12----12-----12--12-12-12-12-12-12-12-10-12-10-12-------|
A|---------------------------------------------------------------------------|
D|---------------------------------------------------------------------------|

Then the last time you do this instead of the last one.
G|---------------------------------------------------------------------------|
D|-12-10---------------------------------------------------------------------|
A|-------12-10-8-------------------------------------------------------------|
D|---------------------------------------------------------------------------|

Outro
You could mess around with the intro and put some variations on here. An example

G|---------------------------------------------------------------------------|
D|---------------------------------------------------------------------------|
A|---------------------------------------------------------3-5---------------|
D|-0-00-0-5/7-2/5-0-00-0-55-7-3-0-00-0-5/7-2/5-0-00-0-3-5--------------------|
Suggest correction
comments
print report bad tab
guest
You may want to rate the tab now too:
select rating
Wanna post a correction for this tab? Suggest correction