Oops, an error
Loading. Please wait.

Late Night tab

version 1
version 1

Whole song

Interactive

by Foals
24,648 views 48 this week
4 commentsread comments
1 2 3 4 5
x 11
add to favorites
×
Save as Personal and add changes to this tab that will be seen only by you. Learn more ›
×
You can save this tab as Personal to edit and correct it or add notes. All changes will be seen only by you. Learn more »
launch autoscroll
font size
0
reset
how to read this tab
guitar tuner
edit
Autoscroll
slow
fast
+/-
esc
set tempo
stop
Author
Difficulty
intermediate
-------------------------------------------------------------------------------
                             Late Night- Foals
-------------------------------------------------------------------------------
Tabbed by:Caiorz

Tuning: Standard (EADGBE)

Listen to the song for timings, and enjoy this awesome song!

0:53 palm mute
e|----------------------------------------------------------------|
B|----------------------------------------------------------------|
G|----------------------------------------------------------------|
D|----------------------------------------------------------------|
A|----------------------------------------------------------------|
E|-8h10-10-10--8h10-10-10--8h10-10-10--8h10-10-10-----------------|

1:56
e|----------------------------------------------------------------|
B|----------------------------------------------------------------|
G|----------------------------------------------------------------|
D|----------------------------------------------------------------|
A|----------------------------------------------------------------|  
E|-8--10-10---8--10-10---8--10-10---8--10-10----------------------|(x2)

e|----------------------------------------------------------------|
B|----------------------------------------------------------------|
G|--------12p10---------------------------------------------------|
D|------------------12p10-----------------------------------------|
A|------------------------12--10h12-12-12----10h12-12-12-12\------|
E|----------------------------------------------------------------|

e|----------------------------------------------------------------|
B|----------------------------------------------------------------|
G|--------12p10----------------------------------------10h12p10---|
D|------------------12p10---------------------------------------12|
A|------------------------12--10h12-12-12----10h12-12-------------|
E|----------------------------------------------------------------|

e|----------------------------------------------------------------|
B|----------------------------------------------------------------|
G|-14p12p10---------12-12p10--------------------------------------|
D|----------12----------------12----------------------------------|
A|-------------------------------10h12-12-12---10-12--10-12-------|
E|----------------------------------------------------------------|

e|---------------------------------------------------------------------------|
B|---------------------------------------------------------------------------|
G|---------------------------------------------------------------------------|
D|------------------------------------10--10-10-10-10--10-12-12-12-10h12-----|
A|-10-12--10-12--10-12--12-12-12-12------------------------------------------|
E|---------------------------------------------------------------------------|


2:21
e|--------------------------------|
B|--------------------------------|       repeat for ages
G|-----------12-----------12------|       Let the G ring
D|-----12-----------12------------|
A|--10----10----10-----10---------|   
E|--------------------------------|

[Solo]
4:06
e|---------------------------|     |-----------------------------------------|
B|---------------------------|     |-----------------------------------------|
G|---------------------------|     |-----------------------------------------|
D|---------------------------|     |-----------------------------------------|
A|---------------------------|     |---------------------10p8----------------|
E|-8h10-10-10-8-8h10-10-10-8-|(x3) |-10~--10~--10~--10~---------10-----------|

e|-X-X-X-X--X----------------------------------------------------------------|
B|-6-6-8-6--6--6/8--6--------------------------------------------------------|
G|-X-X-X-X--X----------5-5-7-7-7~-7~-7~-7~-7-7-7-7--5-5-5-5-5-5-7-7-7-7-77---|
D|---------------------------------------------------------------------------|
A|---------------------------------------------------------------------------|
E|---------------------------------------------------------------------------|

e|-------------------------------------------------|
B|----------------------X-------------------X------|
G|----------------------X-------------------X------|
D|----------------------X-------------------X------|
A|-------------------------------------------------|
E|-10~-10~-10~-10~-10~-10--10~-10~-10~-10~-10------|

                             Palm mute
e|-X---X--X--X--X---/13---| |--13-13--13--13-13--13--|    
B|-13--13-13-15-15--------| |------------------------|    
G|-X---X--X--X--X---------| |------------------------|    
D|------------------------| |------------------------|
A|------------------------| |------------------------|    
E|------------------------| |------------------------|(x3) 

e|--13-13--13--13-13--15--13-13----13-13-------|
B|------------------------------15-------15----|
G|---------------------------------------------|
D|---------------------------------------------|
A|---------------------------------------------|
E|---------------------------------------------|


e|-13h15p13--------21------13-------13h15p13-------13----13---13--|
B|----------15-15------15------15------------15-15-----15---15----|
G|----------------------------------------------------------------|
D|----------------------------------------------------------------|
A|----------------------------------------------------------------|
E|----------------------------------------------------------------|

e|-13h15p13-------------------------------------------------------------------|
B|----------15-15--13-15--13-15--13-15--13-15--13-15--13-15--13-15--13-15--15-|
G|----------------------------------------------------------------------------|
D|----------------------------------------------------------------------------|
A|----------------------------------------------------------------------------|
E|----------------------------------------------------------------------------|

e|-15-13----------------------------------------------------------|
B|-------15-13--13--15-13-----------------------------------------|
G|------------------------14-12--12--14-12-10---------10~---------|
D|--------------------------------------------12--12--------------|
A|----------------------------------------------------------------|
E|----------------------------------------------------------------|

e|----------------------------------------------------------------|
B|----------------------------------------------------------------|
G|-14-12-10---------12-10-----------------------------------------|
D|----------12--12--------12-10--10--12-10------------------------|
A|-----------------------------------------12-10--10/12~----------|
E|----------------------------------------------------------------|

e|----------------------------------------------------------------|
B|----------------------------------------------------------------|
G|----------------------------------------------------------------|
D|----------------------------------------------------------------|
A|----------------------------------------------------------------|
E|-/10-10-10~-----/10-10-10~-----/10-10-10~---------10---13---15--|

e|-------------------------------------------|    |----------------------------------------|
B|-------------------------------------------|    |----------------------------------------|
G|-------------------------------------------|    |----------------------------------------|
D|-------------------------------------------|    |----------------------------------------|
A|-------------------------------------------|    |----------------------------------------|
E|-8--10-10---8--10-10---8--10-10---8--10-10-|x3  |-8--10-10---8--10-10---8--10-10---8--10-|



************************************

| h  Hammer-on
| p  Pull-off
| \  Slide down
| ~  Vibrato
| /  Slide up

************************************

            
            
Suggest correction
Creating personal tab
Creating personal tab
You can edit any tab online and save it as your Personal.

You can edit, replace or remove any tab part or add personal notes – all changes will be seen only by you.

Personal tabs can be accessed anytime from any device, even offline.
Learn more »
comments
print report bad tab
4 comments total. Showing first comments.
+1 reply
wocfr 10 Jul 06, 2013 01:54 AM

Very good!

0 reply
ozboztom1 10 Feb 26, 2014 02:05 PM

I've been looking for one for ages, then i am almost finessed writing this tab- then realised someone has.. ahaah

+2 reply
ozboztom1 10 Feb 26, 2014 02:07 PM

also i might add, you might wanna tab in the chords for this song - Dm Dm c B.

And that you can use these as substitute for the piano part.

Dm Dm C B
e|--------------------|
B|--15--15---13---11--|
G|--14--14---12---10--|
D|--12--12---10---8---|
A|--------------------|
E|--------------------|

guest
You may want to rate the tab now too:
select rating
Wanna post a correction for this tab? Suggest correction