Oops, an error
Loading. Please wait.

Milk And Black Spiders Tab

version 2
version 2

Whole song

  • This is the Kexp version: https://m.youtube.com/watch?v=6jcFRUumgRk.
82 views 6 this week
no commentswrite comment
1 2 3 4 5
3 more votes to show rating
add to favorites
launch autoscroll
font size
0
reset
how to read this tab
guitar tuner
Autoscroll
slow
fast
+/-
esc
set tempo
stop
Help us to improve Ultimate-Guitar.com Take our survey!
×
Author
Difficulty
intermediate
[Intro]

(Jimmy) 
e|---------------------------------------|
B|---------------------------------------|
G|-------4---7---11------4---7---6---4---|
D|-------5---9---12------5---9---7---5---|
A|-------5---9---12------5---9---7---5---|
E|---------------------------------------|

(Yannis) 
e|----------------------------5-5------7-7----------------|
B|-----7-5------------------------5-5----------7h5--------|
G|----------7--4-4---------------------------------7h4-4--|
D|--------------7-7---------------------------------------|
A|--------------------------------------------------------|
E|--------------------------------------------------------| 
 

************************************

| h  Hammer-on

************************************
Suggest correction
Give kudos to tab author, rate the tab!
1 2 3 4 5
comments
print report bad tab
guest
You may want to rate the tab now too:
select rating
Wanna post a correction for this tab? Suggest correction