Oops, an error
Loading. Please wait.

My Number bass

version 1
version 1

Whole song

  • The whole Holy Fire album is Drop D, so I made the... Show more

Interactive

by Foals
21,123 views 36 this week
1 commentread comment
1 2 3 4 5
x 18
add to favorites
×
Save as Personal and add changes to this tab that will be seen only by you. Learn more ›
×
You can save this tab as Personal to edit and correct it or add notes. All changes will be seen only by you. Learn more »
launch autoscroll
font size
0
reset
guitar tuner
edit
Autoscroll
slow
fast
+/-
esc
set tempo
stop
Author
Difficulty
My Number - Foals
Tabbed by: Joe Owens
E-mail: SlinkeeDawg@gmail.com
Tuning: Standard (EADG)

[Intro Riff]
G|--------------------------------------------------------------------------|
D|--------------------------------------------------------------------------|
A|--------------------------------------------------------------------------|
E|--------------------------------------------------------------------------|

*Drums*

[Intro]
G|--------------------------------------------------------------------------|
D|--------------------------------------------------------------------------|
A|--2-2-2---4-4--4------------------2-2-2---4-4--4--------------------------|
E|--------------------------0-0-2-2-------------------------0-0-2-2-0-------|

G|--------------------------------------------------------------------------|
D|--------------------------------------------------------------------------|
A|--2-2-2---4-4--4------------------2-2-2---4-4--4-----------7-7------------|
E|--------------------------0-0-2-2-------------------------------------9-9-|

'You don't have my number' 

G|--------------------------------------------------------------------------|
D|--------------------------------------------------------------------------|
A|--2-2-2---4-4--4------------------2-2-2---4-4--4--------------------------|
E|------------------------0-0-2-2-------------------------0-0-2-2-0---------|

G|--------------------------------------------------------------------------|
D|--------------------------------------------------------------------------|
A|--2-2-2---4-4--4------------------2-2-2---4-4--4-----------7-7------------|
E|-------------------------0-0-2-2-------------------------------------9-9--|

'Cause I feel alive'

G|--------------------------------------------------------------------------|
D|--------------------------------------------------------------------------|
A|--2-2-2---4-4--4------------------2-2-2---4-4--4--------------------------|
E|------------------------0-0-2-2-------------------------0-0-2-2-0---------|

G|--------------------------------------------------------------------------|
D|--------------------------------------------------------------------------|
A|--2-2-2---4-4--4-----------------2-2-2---4-4--4-----------7-7-------7-----|
E|---------------------0-0-2-2-----------------------------------9-9-----9/-|

'So the people of the city'

G|--------------------------------------------------------------------------|
D|--------------------------------------------------------------------------|
A|--------------------------------------------------------------------------|
E|--------------------------------------------------------------------------|

G|--------------------------------------------------------------------------|
D|--------------------------------------------------------------------------|
A|--------------------------------------------------------------------------|
E|--------------------------------------------------------------------------|

'You don't have my number'

G|--------------------------------------------------------------------------|
D|--------------------------------------------------------------------------|
A|--2-2-2---4-4--4------------------2-2-2---4-4--4--------------------------|
E|------------------------0-0-2-2-------------------------0-0-2-2-0---------|

G|--------------------------------------------------------------------------|
D|--------------------------------------------------------------------------|
A|--2-2-2---4-4--4------------------2-2-2---4-4--4-----------7-7------------|
E|-----------------------0-0-2-2-------------------------------------9-9----|

After Chorus

G|--------------------------------------------------------------------------|
D|--------------------------------------------------------------------------|
A|--2-2-2---4-4--4------------------2-2-2---4-4--4--------------------------|
E|-----------------------0-0-2-2--------------------------------------------|

'Now the wolf is knocking at my door'

G|--------------------------------------------------------------------------|
D|--------------------------------------------------------------------------|
A|--2-2-2---4-4--4------------------2-2-2---4-4--4--------------------------|
E|--------------------------0-0-2-2-------------------------0-0-2-2-0-------|

G|--------------------------------------------------------------------------|
D|--------------------------------------------------------------------------|
A|--2-2-2---4-4--4-------------2-2-2---4-4--4----------7-7--------7---------|
E|-------------------0-0-2-2---------------------------------9-9------9~/---|

'I don't need your council'

G|--------------------------------------------------------------------------|
D|--------------------------------------------------------------------------|
A|--------------------------------------------------------------------------|
E|--------------------------------------------------------------------------|

G|--------------------------------------------------------------------------|
D|--------------------------------------------------------------------------|
A|--------------------------------------------------------------------------|
E|--------------------------------------------------------------------------|

'You don't have my number'

G|--------------------------------------------------------------------------|
D|--------------------------------------------------------------------------|
A|--2-2-2---4-4--4------------------2-2-2---4-4--4--------------------------|
E|-----------------------0-0-2-2-------------------------0-0-2-2-0----------|

G|--------------------------------------------------------------------------|
D|--------------------------------------------------------------------------|
A|--2-2-2---4-4--4------------------2-2-2---4-4--4-----------7-7------------|
E|-----------------------0-0-2-2-------------------------------------9-9----|

After Chorus

G|--------------------------------------------------------------------------|
D|--------------------------------------------------------------------------|
A|--2-2-2---4-4--4------------------2-2-2---4-4--4--------------------------|
E|---------------------0-0-2-2----------------------------------------------|

G|--------------------------------------------------------------------------|
D|--------------------------------------------------------------------------|
A|--2-2-2---4-4--4------------------2-2-2---4-4--4--------------------------|
E|-----------------------0-0-2-2--------------------------------------------|

'I feel alive'

G|--------------------------------------------------------------------------|
D|--------------------------------------------------------------------------|
A|--2-2-2---4-4--4------------------2-2-2---4-4--4--------------------------|
E|----------------------0-0-2-2-------------------------0-0-2-2-0-----------|

G|--------------------------------------------------------------------------|
D|--------------------------------------------------------------------------|
A|--2-2-2---4-4--4--------------2-2-2---4-4--4----------7-7----------7------|
E|-------------------0-0-2-2------------------------------------9-9-----9~/-|

'Can you even hear me?'

G|--------------------------------------------------------------------------|
D|--------------------------------------------------------------------------|
A|--------------------------------------------------------------------------|
E|--------------------------------------------------------------------------|

G|--------------------------------------------------------------------------|
D|--------------------------------------------------------------------------|
A|--------------------------------------------------------------------------|
E|--------------------------------------------------------------------------|

'You don't have my number'

G|--------------------------------------------------------------------------|
D|--------------------------------------------------------------------------|
A|--2-2-2---4-4--4------------------2-2-2---4-4--4--------------------------|
E|-----------------------0-0-2-2-------------------------0-0-2-2-0----------|

G|--------------------------------------------------------------------------|
D|--------------------------------------------------------------------------|
A|--2-2-2---4-4--4------------------2-2-2---4-4--4-----------7-7------------|
E|----------------------0-0-2-2-------------------------------------9-9-----|

G|--------------------------------------------------------------------------|
D|--------------------------------------------------------------------------|
A|--2-2-2---4-4--4------------------2-2-2---4-4--4--------------------------|
E|------------------------0-0-2-2-------------------------0-0-2-2-0---------|

G|--------------------------------------------------------------------------|
D|--------------------------------------------------------------------------|
A|--2-2-2---4-4--4------------------2-2-2---4-4--4-----------7-7------------|
E|---------------------0-0-2-2-------------------------------------9-9------|

Ending

G|--------------------------------------------------------------------------|
D|--------------------------------------------------------------------------|
A|--2-2-2---4-4--4------------------2-2-2---4-4--4--------------------------|
E|-----------------------0-0-2-2-------------------------0-0-2-2-0----------|

G|--------------------------------------------------------------------------|
D|--------------------------------------------------------------------------|
A|--2-2-2---4-4--4------------------2-2-2---4-4--4-----------7-7------------|
E|----------------------0-0-2-2-------------------------------------9-9-----|


************************************

| /  Slide up

************************************

            
            
Suggest correction
Creating personal tab
Creating personal tab
You can edit any tab online and save it as your Personal.

You can edit, replace or remove any tab part or add personal notes – all changes will be seen only by you.

Personal tabs can be accessed anytime from any device, even offline.
Learn more »
comments
print report bad tab
1 comment total.
0 reply
CoheedFan28 469 Apr 04, 2014 10:55 AM

Excellent Tab! Thank you

guest
You may want to rate the tab now too:
select rating
Wanna post a correction for this tab? Suggest correction