Oops, an error
Loading. Please wait.

My Number Tab

version 1
version 1

Whole song

Interactive

75,527 views 198 this week
no commentswrite comment
1 2 3 4 5
excellent!
x 12
add to favorites
launch autoscroll
font size
0
reset
how to read this tab
guitar tuner
Tab Pro tools
  • play this tab
  • loop segment
  • change instrument
  • show fretboard
  • metronome
×
Best way to learn
"My Number"
Autoscroll
slow
fast
+/-
esc
set tempo
stop
Contributor
Difficulty
intermediate
Tuning standard
email: jdgilbert@ntlworld.com
http://www.youtube.com/watch?v=bwUDnWFprcs

i worked this out from their live video so it might sound a wee bit different

intro 
  pm
E|--------------------------|
B|----19-19-17-----17-------|
G|-18----------18-----18----| 
D|--------------------------|
A|--------------------------|
E|--------------------------|

*TST TST*

Guitar 1
  pm
E|---------------------------------------------|
B|-------17-17-------------19-19-17----17------|
G|-16-18-------18-18-18-18-----------18----18--|
D|---------------------------------------------|
A|---------------------------------------------|
E|---------------------------------------------|

E|--------------------------------------------|
B|-------------17-------------17-17-16---16---|
G|-18-18-16-18----18-18-18-18----------18---18|
D|--------------------------------------------|
A|--------------------------------------------|
E|--------------------------------------------|

Guitar 2 repeats this until verse 2

E|-----------4-4------------|-----------4-4------------|
B|-----------5-5------------|-----------5-5------------|
G|-4-4-4-6-6-6-6------------|-4-4-4-6-6-6-6------------|
D|----------------6-6-7-7---|----------------6-6-7-7-6-|
A|--------------------------|--------------------------|
E|--------------------------|--------------------------|

verse 1

Guitar 1 Yannis just changes between these 2 notes it's easy to hear so listen for the changes

E|-------|
B|-------|
G|-9--11-|
D|-------|
A|-------|
E|-------|

then

E|-14-------14------14---| x8
B|----17-------17--------|
G|-------16------16---16-|
D|-----------------------|
A|-----------------------|
E|-----------------------|

Verse 2 just guitar 2 plays here (delay might be used)

  pm
E|----------------|----------------|
B|----------------|----------------|
G|-4-4-4-6-6-6-6--|-4-4-4-6-6-6-6--|
D|----------------|----------------|
A|----------------|----------------|
E|----------------|----------------|

  
E|---------------|-----------------|
B|---------------|-----------------|
G|-4-4-4-6-6-6-6-|-4-4-4-6-6--6----|
D|---------------|-----------------|
A|---------------|-----------------|
E|---------------|-----------------|

  
E|----------------|------------------|
B|----------------|-------------4----|
G|-4-4-4-6-6-6-6--|-4-4-4-6-6-6---6-4|
D|----------------|------------------|
A|----------------|------------------|
E|----------------|------------------|

  
E|----------------|-------------|
B|----------------|-------------|
G|-4-4-4-6-6-6-6--|-4-4-4-4-6-6-|
D|----------------|-------------|
A|----------------|-------------|
E|----------------|-------------|

Chorus

Guitar 2
  
E|------------------------|
B|------------------------|
G|-6-6-6-9-9-9-9-1-1-2-2--|
D|-6-6-6-9-9-9-9-1-1-2-2--|
A|------------------------|
E|------------------------|

E|------------------------|
B|------------------------|
G|-6-6-6-9-9-9-9-1-1-2-2-1|
D|-6-6-6-9-9-9-9-1-1-2-2-1|
A|------------------------|
E|------------------------|

E|------------------------|
B|------------------------|
G|-6-6-6-9-9-9-9-1-1-2-2--|
D|-6-6-6-9-9-9-9-1-1-2-2--|
A|------------------------|
E|------------------------|

E|------------------------|
B|------------------------|
G|-6-6-6-9-9-9-9-13-13-9-9|
D|-6-6-6-9-9-9-9-13-13-9-9|
A|------------------------|
E|------------------------|

Guitar 1


E|----------------------------| x3
B|----------------------------|
G|-11-11-11-9-9---------------|
D|---------------11-11--------|
A|----------------------12-12-|
E|----------------------------|

 and to finish the chorus
E|----------------------------|
B|----------------------------|
G|-11-11-11-9-9--13-13--------|
D|---------------------14-14--|
A|----------------------------|
E|----------------------------|

Guitar 1 plays this again
  pm
E|---------------------------------------------|
B|-------17-17-------------19-19-17----17------|
G|-16-18-------18-18-18-18-----------18----18--|
D|---------------------------------------------|
A|---------------------------------------------|
E|---------------------------------------------|

E|--------------------------------------------|
B|-------------17-------------17-17-16---16---|
G|-18-18-16-18----18-18-18-18----------18---18|
D|--------------------------------------------|
A|--------------------------------------------|
E|--------------------------------------------|

While Guitar 2 plays

  pm
E|------------------|----------------|
B|------------------|----------------|
G|-4-4-4-6-6-6-6-6-6|-4-4-4-6-6-6-6-6|
D|------------------|----------------|
A|------------------|----------------|
E|------------------|----------------|

  
E|------------------|-----------------|
B|------------------|-----------------|
G|-4-4-4-6-6-6-6-6-6|-4-4-4-6-6--6----|
D|------------------|-----------------|
A|------------------|-----------------|
E|------------------|-----------------|

VERSE AGAIN

GUITAR 1 SAME RULE
E|-------|
B|-------|
G|-9--11-|
D|-------|
A|-------|
E|-------|

GUITAR 2 REPEAT THESE TWICE

E|-----------4-4------------|-----------4-4------------|
B|-----------5-5------------|-----------5-5------------|
G|-4-4-4-6-6-6-6------------|-4-4-4-6-6-6-6------------|
D|----------------6-6-7-7---|----------------6-6-7-7-6-|
A|--------------------------|--------------------------|
E|--------------------------|--------------------------|

and this plays again
  pm
E|----------------|----------------|
B|----------------|----------------|
G|-4-4-4-6-6-6-6--|-4-4-4-6-6-6-6--|
D|----------------|----------------|
A|----------------|----------------|
E|----------------|----------------|

  
E|---------------|-----------------|
B|---------------|-----------------|
G|-4-4-4-6-6-6-6-|-4-4-4-6-6--6----|
D|---------------|-----------------|
A|---------------|-----------------|
E|---------------|-----------------|

  
E|----------------|------------------|
B|----------------|-------------4----|
G|-4-4-4-6-6-6-6--|-4-4-4-6-6-6---6-4|
D|----------------|------------------|
A|----------------|------------------|
E|----------------|------------------|

  
E|----------------|-----------|
B|----------------|-----------|
G|-4-4-4-6-6-6-6--|-4-4-4-6-6-|
D|----------------|-----------|
A|----------------|-----------|
E|----------------|-----------|

this is taking me forever so... just listen for the order
REPEAT CHORUS
after chorus...
Guitar 1 plays this again
  pm
E|---------------------------------------------|
B|-------17-17-------------19-19-17----17------|
G|-16-18-------18-18-18-18-----------18----18--|
D|---------------------------------------------|
A|---------------------------------------------|
E|---------------------------------------------|

E|--------------------------------------------|
B|-------------17-------------17-17-16---16---|
G|-18-18-16-18----18-18-18-18----------18---18|
D|--------------------------------------------|
A|--------------------------------------------|
E|--------------------------------------------|

Guitar 2 does this twice

E|----------------|----------------|
B|----------------|----------------|
G|-4-4-4-6-6-6-6--|-4-4-4-6-6-6-6--|
D|----------------|----------------|
A|----------------|----------------|
E|----------------|----------------|

  
E|---------------|-----------------|
B|---------------|-----------------|
G|-4-4-4-6-6-6-6-|-4-4-4-6-6--6----|
D|---------------|-----------------|
A|---------------|-----------------|
E|---------------|-----------------|

  
E|----------------|------------------|
B|----------------|-------------4----|
G|-4-4-4-6-6-6-6--|-4-4-4-6-6-6---6-4|
D|----------------|------------------|
A|----------------|------------------|
E|----------------|------------------|

  
E|----------------|-----------|
B|----------------|-----------|
G|-4-4-4-6-6-6-6--|-4-4-4-6-6-|
D|----------------|-----------|
A|----------------|-----------|
E|----------------|-----------| 

CHORUS AGAIN guitar one's tremelo part


E|----------------|
B|-17-19----------|
G|-------18-------|
D|----------------|
A|----------------|
E|----------------|

finished
comments
print report bad tab
I want to post or [tab]
guest
You may want to rate the tab now too:
select rating
Please do not post tabs as comments. Select "correction" instead!