Oops, an error
Loading. Please wait.

Prelude intro tab

version 1
version 1

Intro

Whole song

  • Added in some guitar parts that were missing in th... Show more
  • Slightly different from original, but can be used ... Show more
by Foals
5,167 views 9 this week
6 commentsread comments
1 2 3 4 5
1 last vote to show rating
add to favorites
×
Save as Personal and add changes to this tab that will be seen only by you. Learn more ›
×
You can save this tab as Personal to edit and correct it or add notes. All changes will be seen only by you. Learn more »
launch autoscroll
font size
0
reset
how to read this tab
guitar tuner
edit
Autoscroll
slow
fast
+/-
esc
set tempo
stop
-----------------------------------------------------------------
PRELUDE - Foals
-----------------------------------------------------------------
Tabbed by: Whitey
Email: whitey.13@hotmail.co.uk

Tuning: DADGBe

First tab so yeah. 
Couldn't tab the picking but I'm sure you can work it out.

Thanks to indierockerHUN and ohrichard for the corrections!

Peace x


e|-------------------------------------------------------------------|
B|-14-14-14-14-14-14-14-15-15-15-15-17-17-17-17-17-17-17-------------|
G|-------------------------------------------------------------------| x3
D|-------------------------------------------------------------------|
A|-------------------------------------------------------------------|
E|-------------------------------------------------------------------|


e|-------------------------------------------------------------------|
B|-14-14-14-14-14-14-14-15-15-15-15-12-12-12-12-17-17-17-17-17-17-17-|
G|-------------------------------------------------------------------| x1
D|-------------------------------------------------------------------|
A|-------------------------------------------------------------------|
E|-------------------------------------------------------------------|

e|-------------------------------------------------------------------|
B|-14-14-14-14-14-14-14-15-15-15-15-17-17-17-17-17-17-17-------------|
G|-------------------------------------------------------------------| x3
D|-------------------------------------------------------------------|
A|-------------------------------------------------------------------|
E|-------------------------------------------------------------------|


'Chorus'


e|-------------------------------------------------------------------|
B|-------------------------------------------------------------------|
G|-------------------------------------------------------------------| 
D|-2-2-x-x-x-2-2--5-5-5--7-7-7---------------------------------------|
A|-x-x-x-x-x-x-x--5-5-5--7-7-7---------------------------------------|
D|-2-2-x-x-x-2-2--5-5-5--7-7-7---------------------------------------|

            
            
Suggest correction
Creating personal tab
Creating personal tab
You can edit any tab online and save it as your Personal.

You can edit, replace or remove any tab part or add personal notes – all changes will be seen only by you.

Personal tabs can be accessed anytime from any device, even offline.
Learn more »
Give kudos to tab author, rate the tab!
1 2 3 4 5
comments
print report bad tab
6 comments total. Showing first comments.
+2 reply
indierockerHUN 10 Apr 17, 2013 11:22 PM

Hey mate!

I think it's something like
e|9-9-9-9-9-9-9-9-10-10-10-10-12-12-12-12 (2x-3x)
and then suddenly:
e|9-9-9-9-9-9-9-9-10-10-10-10-7-7-12-12 (1x)
then this again:
e|9-9-9-9-9-9-9-9-10-10-10-10-12-12-12-12 (2x-3x)
and then...
for a while.
But pretty much that's the intro, i suppose.
I don't think they play this on the e, maybe on the B or the G, that's more like them, but i have no idea about this.
Thanks for the tab!

0 reply
whitey4u 140 May 21, 2013 10:07 AM

Updated the tab, thanks man x

0 reply
ohrichard 82 May 29, 2013 02:32 PM

I would guess they play it on the B string. Frets 12, 14, 15 and 17. Same notes of course, but the guys usually play a lot of stuff high on the B and G strings like indierockerHUN said. The intonation is a bit better on the B string too.

guest
You may want to rate the tab now too:
select rating
Wanna post a correction for this tab? Suggest correction