Oops, an error
Loading. Please wait.

Prelude tab

version 1
version 1

Whole song

  • Added in some guitar parts that were missing in th... Show more
  • Slightly different from original, but can be used ... Show more
by Foals
1,938 views 6 this week
no commentswrite comment
1 2 3 4 5
x 3
add to favorites
×
Save as Personal and add changes to this tab that will be seen only by you. Learn more ›
×
You can save this tab as Personal to edit and correct it or add notes. All changes will be seen only by you. Learn more »
launch autoscroll
font size
0
reset
how to read this tab
guitar tuner
edit
Autoscroll
slow
fast
+/-
esc
set tempo
stop
-------------------------------------------------------------------------------
                             FOALS - PRELUDE
-------------------------------------------------------------------------------
Tabbed by: Mark Kovacs
E-mail: nidaleop@gmail.com

Tuning:Drop D (DADGBe)

!! THIS IS THE LIVE VERSION !!


JIMMY'S PART

e|-9-9-9-9-9-9-9-9-10-10-10-10-12-12-12-12-----------------------------------|
B|---------------------------------------------------------------------------|   3x
G|---------------------------------------------------------------------------|
D|---------------------------------------------------------------------------|
A|---------------------------------------------------------------------------|
D|---------------------------------------------------------------------------|

e|-9-9-9-9-9-9-9-9-10-10-10-10-7-7-7-7-12-12-12-12---------------------------|
B|---------------------------------------------------------------------------|
G|---------------------------------------------------------------------------|   1x
D|---------------------------------------------------------------------------|
A|---------------------------------------------------------------------------|
D|---------------------------------------------------------------------------|

e|-9-9-9-9-9-9-9-9-10-10-10-10-12-12-12-12-----------------------------------|
B|---------------------------------------------------------------------------|   3x etc.
G|---------------------------------------------------------------------------|
D|---------------------------------------------------------------------------|
A|---------------------------------------------------------------------------|
D|---------------------------------------------------------------------------|


YANNIS' PART

e|------------------------------------------------------------------------|
B|------------------------------------------------------------------------|
G|--0h9-0h99----0h9-0h99----0h9-0h99-0h9-0h99----7---9/12-----------------|    
D|-----------9-----------9---------------------9---9----------------------|  
A|------------------------------------------------------------------------|  
D|------------------------------------------------------------------------|  
                                                                                 
                                                                                  
                                                                                   
e|---------------------------------------------------------------------|     
B|---------------------------------------------------------------------|      
G|-14b-12--------14b-12----------------14b-12--------------------------|  
D|---------14-14---------14-14-12-14----------14--14--12-12-17-14------|    
A|----------------------------------------------------12-12-17-14------|
D|----------------------------------------------------12-12-17-14------|

(YANNIS and JIMMY)

e|---------------------------------------------------------------------------|
B|---------------------------------------------------------------------------|
G|---------------------------------------------------------------------------|
D|-12-12-15-12---2-2-x-x-2-5-5-7-7-------------------------------------------|
A|-12-12-15-12---x-x-x-x-x-5-5-7-7-------------------------------------------|
D|-12-12-15-12---2-2-x-x-2-5-5-7-7-------------------------------------------|

(YANNIS)

e|----------------------------------------------------------------15~---15-17-17-15--------------|
B|------------------------------------------------------15-15-15---------------------17~---------|
G|-17b~-17-17-17-15~-----------------15-15-15-17-17-17-------------------------------------------|
D|-------------------17-17-17-15h17--------------------------------------------------------------|
A|-----------------------------------------------------------------------------------------------|
D|-----------------------------------------------------------------------------------------------|


(index finger on the 12th fret)

e|-0h15----------------------------------------------------------------------|
B|------0h15-0h14------0h15-0h14h15------------------------------------------|
G|----------------0h14-------------------------------------------------------| (You can add some
D|---------------------------------------------------------------------------|  more notes if you 
A|---------------------------------------------------------------------------|  want, but this should
D|---------------------------------------------------------------------------|  sound fine)

Ends with:

e|------|
B|-14~--|
G|------|  (3-4 times)
D|------|
A|------|
D|------|

************************************
| h   hammer-on
| ~   vibrato
| x   Mute note
| b   Bend
| /   slide
************************************

            
            
Suggest correction
Creating personal tab
Creating personal tab
You can edit any tab online and save it as your Personal.

You can edit, replace or remove any tab part or add personal notes – all changes will be seen only by you.

Personal tabs can be accessed anytime from any device, even offline.
Learn more »
Give kudos to tab author, rate the tab!
1 2 3 4 5
comments
print report bad tab
guest
You may want to rate the tab now too:
select rating
Wanna post a correction for this tab? Suggest correction