Oops, an error
Loading. Please wait.

Prelude Live tab

version 4
version 4

Whole song

  • Added in some guitar parts that were missing in th... Show more
  • Slightly different from original, but can be used ... Show more
by Foals
22 views 6 this week
no commentswrite comment
1 2 3 4 5
3 more votes to show rating
add to favorites
×
Save as Personal and add changes to this tab that will be seen only by you. Learn more ›
×
You can save this tab as Personal to edit and correct it or add notes. All changes will be seen only by you. Learn more »
launch autoscroll
font size
0
reset
how to read this tab
guitar tuner
edit
Autoscroll
slow
fast
+/-
esc
set tempo
stop
About this tab version
Slightly different from original, but can be used as a guide. Tabbed from guitar cover video. Was this info helpful? Yes No
This tab is an adapted version of the original and as such is not 100% accurate to the Foals album version,
but I feel it can still be used as a rough guide that you can adapt as you wish!

Each [PART] represents one section of the song played in this guitar cover using a loop pedal:
https://www.youtube.com/watch?v=-arVIVcvkuc

The video is very helpful for timings and reference.

I recommend using a good ammount of delay and reverb.

Feel free to add little hammer ons, pull offs, and some extra slides if you feel like it!

Tuning: Drop D

[Part 1]
PM-----------------------------------------------------|
e|-9-x-9-x-9-x-9-x-9-x-x-|-10-x-10-x-10-x-12-x-12-x-x-|
B|-----------------------|----------------------------|
G|-----------------------|----------------------------|
D|-----------------------|----------------------------|
A|-----------------------|----------------------------|
D|-----------------------|----------------------------|

PM-----------------------------------------------------|
e|-9-x-9-x-9-x-9-x-9-x-x-|-10-x-10-x-10--7-x-x-12-x-x-|
B|-----------------------|----------------------------|
G|-----------------------|----------------------------|
D|-----------------------|----------------------------|
A|-----------------------|----------------------------|
D|-----------------------|----------------------------|

[Part 2]
PM---------------------------------------------|
e|---------------------|----------------------|
B|---------------------|---------------7-7----|
G|---7-9-x-x---7-9-9-7-|---7-9-x-x---7-----9--|
D|-9---------9---------|-9---------9----------|
A|---------------------|----------------------|
D|---------------------|----------------------|

PM---------------------------------------------|
e|---------------------|----------------------|
B|---------------------|-----7---------7-7----|
G|---7-9-x-x---7-9-9-7-|---7---x-x---7-----9--|
D|-9---------9---------|-9---------9----------|
A|---------------------|----------------------|
D|---------------------|----------------------|

[Part 3]
PM---------------------------------------------|
e|---------------------|----------------------|
B|---------------------|----------------------|
G|---------------------|----------------------|
D|---------------------|----------------------|
A|---------------------|----------------------|
D|-2-2---------------0-|-2-2------5-5----7-7--|

PM----------------------------------------------------------|
e|-----------------------------|---------------------------|
B|-----------------------------|---------------------------|
G|-----------------------------|---------------------------|
D|-----------------------------|---------------------------|
A|-----------------------------|---------------------------|
D|-2--2-2-2--2-2-2--2-2-2--2-2-|-2--2-2-2--2-2-2--2-2-2--0-|

PM------------------------------------------------------------|
e|-----------------------------|-----------------------------|
B|-----------------------------|-----------------------------|
G|-----------------------------|-----------------------------|
D|-----------------------------|-----------------------------|
A|-----------------------------|-----------------------------|
D|-2--2-2-2--2-2-2--2-2-2--2-2-|-5--5-5-5--5-5-7--7-7-7--7-7-|

[Part 4]
e|-------------------|-------------------|
B|-------------------|-------------------|
G|-------------------|-------------------|
D|---5---------7-----|-2-----------------|
A|-----5---------7---|-2-----------------|
D|-5-----5-5/7-----7-|-2-----------------|

[Part 5]
e|-------------------|---------------------|
B|-------------------|---------------------|
G|-----9-----9-----9-|---9-----9/12---12---|
D|-------9-----9-----|-----9--------9----9-|
A|-5/7-----7-----7---|-7-----7-------------|
D|-------------------|---------------------|

e|-------------------|----------------------------|
B|-------------------|----------------------------|
G|-----9-----9-----9-|-9/12---12---12/14----14----|
D|-------9-----9-----|------9----9-------12----12-|
A|-5/7-----7-----7---|----------------------------|
D|-------------------|----------------------------|

[Part 6]
e|------------------------------------|---------------------------------|
B|------------------------------------|---------------------------------|
G|-14b-12----------14b-12-------------|-14b-12----------15~-15~-15~-15~-|
D|--------14-14\----------14-14-12-14-|--------14-14--------------------|
A|------------------------------------|---------------------------------|
D|------------------------------------|---------------------------------|

e|------------------------------------|-------------------------------|
B|------------------------------------|-------------------------------|
G|-14b-12----------14b-12-------------|-14b-12-----------------12-----|
D|--------14-14\----------14-14-12-14-|--------14-14----12-12------14-|
A|------------------------------------|-------------------------------|
D|------------------------------------|-------------------------------|

[Part 7]
(During this part, continuously barre the GBe strings on the 12th fret to make playing much easier:)
e|-12-|
B|-12-|
G|-12-|  (Barre the strings like this with your first finger for the entirety of this part)
D|----|
A|----|
D|----|

e|-12-h15p---------------------------------------------|-12-h15p---------------------------------|
B|----------12-h15p--12-h14p--12-h15p--12-h14p---------|----------12-h15p--12-h14p--12-h15p--14~-|
G|---------------------------------------------12-h14p-|-----------------------------------------|
D|-----------------------------------------------------|-----------------------------------------|
A|-----------------------------------------------------|-----------------------------------------|
D|-----------------------------------------------------|-----------------------------------------|


***********************************

| /   Slide up
| \   Slide down
| h   Hammer-on
| p   Pull-off
| ~   Vibrato
| x   Dead note
| b   Bend

***********************************

            
            
Suggest correction
Creating personal tab
Creating personal tab
You can edit any tab online and save it as your Personal.

You can edit, replace or remove any tab part or add personal notes – all changes will be seen only by you.

Personal tabs can be accessed anytime from any device, even offline.
Learn more »
Give kudos to tab author, rate the tab!
1 2 3 4 5
comments
print report bad tab
guest
You may want to rate the tab now too:
select rating
Wanna post a correction for this tab? Suggest correction