Oops, an error
Loading. Please wait.

Snake Oil tab

version 1
version 1

Whole song

Interactive

by Foals
8,576 views 15 this week
2 commentsread comments
1 2 3 4 5
x 8
add to favorites
×
Save as Personal and add changes to this tab that will be seen only by you. Learn more ›
×
You can save this tab as Personal to edit and correct it or add notes. All changes will be seen only by you. Learn more »
launch autoscroll
font size
0
reset
how to read this tab
guitar tuner
edit
Autoscroll
slow
fast
+/-
esc
set tempo
stop
Author
Difficulty
-------------------------------------------------------------------------------
                             SNAKE OIL - Foals
-------------------------------------------------------------------------------
Tabbed by:Dr92
E-mail:

This is a great song, off the latest album. I have spent some time trying to figure this song out, 
this is as far as I have gotten so far, but I plan on adding to it as soon as I can figure the rest out. 
If anyone else has figured it out, or have any corrections, please feel free to comment.
Thank you

Tuning: Standard

[Intro/Verse]
e|---------------------------------------------------------------------------|
B|---------------------------------------------------------------------------|
G|---------------------------------------------------------------------------|
D|--------------------------2~-----------------------------------------------|
A|---------------------------------------------------------------------------|
E|-0-0-0-3b-0-0-3b-0-3b-0-3--------------------------------------------------|

[Verse]] - Guitar 2
e|-15-12-----------------------------------------|
B|-------15-12----12-----------12----------------|
G|-------------14----14--14-14-------------------|
D|---------------------------------14-14--12-14--|
A|-----------------------------------------------|
E|-----------------------------------------------|

[Chorus]
e|-------------------------------------------------------|
B|-------------------------------------------------------|
G|-------------------------------------------------------|
D|-5--7--2---------------12----12-14-------9-7-----------|
A|-5--7--2---4h5p4-5-7---10----10-12-----------10-7~-----|
E|-3--5--0------------------12-------12~-----------------|

[Bridge]
e|-----------------------------------------------------------------|
B|-----------------------------------------------------------------|
G|-----------------------------------------------------------------|
D|-5-7-9----------------9-7--------------5-7-9---------5-----7-2---|
A|-5-7-9--2-0-----5-----9-7-0h2p0---0----5-7-9-2-0-----5-----7-2---|
E|-3-5-7------3-0-3-0-3-7-5-------3------3-5-7-----3-0-3-0-3-5-0---|


************************************

| h  Hammer-on
| p  Pull-off
| b  Bend
| ~  Vibrato

************************************

            
            
Suggest correction
Creating personal tab
Creating personal tab
You can edit any tab online and save it as your Personal.

You can edit, replace or remove any tab part or add personal notes – all changes will be seen only by you.

Personal tabs can be accessed anytime from any device, even offline.
Learn more »
comments
print report bad tab
2 comments total.
+1 reply
hramoy1996 10 Sep 18, 2015 07:26 AM

Hey, Dr92, thank you for this tab. I love this song and I really wanted to learn how to play it.
I want to offer you a few corrections:
1. Chorus:

e|------------------------------------------------|
B|------------------------------------------------|
G|------------------------------------------------|
D|-5--7--2--------------12-14-------9-7-----------|
A|-5--7--2---5h4p5-7----10-12-----------10-7~-----|
E|-3--5--0--------------------12~-----------------|


2. Bridge
e|-----------------------------------------------------------------|
B|-----------------------------------------------------------------|
G|-----------------------------------------------------------------|
D|-0-5-9----------------9-7--------------0-5-9---------5-----7-2---|
A|-0-5-9--2-0-----5-----9-7-0h2p0---0----0-5-9-2-0-----5-----7-2---|
E|-2-3-7------3-0-3-0-3-7-5-------3------2-3-7-----3-0-3-0-3-5-0---|

+1 reply
Gu1T@r_H3r0 729 Oct 12, 2015 01:09 PM

Love this album :)

I believe that groovy chorus riff goes like this:

e|-------------------------------------------------|
B|-------------------------------------------------|
G|-------------------------------------------------|
D|------------------------5----5-7-------9-7-------|
A|-5--7--2----4h5p4-5-7------7------7~-------10-7--|
E|-3--5--0-----------------------------------------|

There's definitely bass playing in a lower octave and perhaps even another guitar giving it a heavier sound.

G|-------------------------------------------------|
D|-------------------------------------------------|
A|------------4h5p4-5-7----------------------------|
E|-3--5--0----------------3--0-3-5--0----7-5-3-0---|

Feel free to add this to your tab and keep up the good work man!

guest
You may want to rate the tab now too:
select rating
Wanna post a correction for this tab? Suggest correction