Oops, an error
Loading. Please wait.

Tron tab

version 1
version 1

Whole song

Interactive

by Foals
6,017 views 3 this week
4 commentsread comments
1 2 3 4 5
2 more votes to show rating
add to favorites
×
Save as Personal and add changes to this tab that will be seen only by you. Learn more ›
×
You can save this tab as Personal to edit and correct it or add notes. All changes will be seen only by you. Learn more »
launch autoscroll
font size
0
reset
how to read this tab
guitar tuner
edit
Autoscroll
slow
fast
+/-
esc
set tempo
stop
Author
Difficulty
Song: Tron
Artist: Foals
Tabber: Ben Wright
Email: wrighty_94@hotmail.co.uk

I was ashamed to see that no one has put this song up yet so i thought i would have a 
Not 100% perfect, but it sounds okay. =]

Intro
0:04-0:22

e-------------------13--|
B-----------------------|
G-----------------------|   X16
D12-12-12-12-12-12------|
A-----------------------|
E-----------------------|


VERSE
0:22-1:09

I'm not completely sure how this bit goes but i think it has these three notes in it:

e-13-12-10---------|
B------------------|
G------------------|
D------------------|
A------------------|
E------------------|

CHORUS
1:09-1:35

e-17-17-------------17-17----------------------------|
B-------17-17-15-15-------17-17-15-15-17-17-15-15----|
G----------------------------------------------------|
D----------------------------------------------------| \
A----------------------------------------------------|  \
E----------------------------------------------------|   \
                                                         X4
                                                        /
e----------------------------------------------------|  /
B-17-17-15-15-------17-17-15-15----------------------| /
G-------------17-17-------------17-17-14-14-14-14----|
D----------------------------------------------------|
A----------------------------------------------------|
E----------------------------------------------------|

THE 'NEXT BIT'
1:35-2:01


e---------------------------------------------------|
B-----13------13--------13-------13-----------------|
G---------------------------------------------------|
D---------------------------------------------------|
A---------------------------------------------------| \
E---------------------------------------------------|  \
                                                       X2
                                                       /
e------------------------------12-12-10-10----------|  /
B-----13------13---13-13-10-10----------------------| /
G---------------------------------------------------|
D---------------------------------------------------|
A---------------------------------------------------|
E---------------------------------------------------|


e---------------------------------------------------|
B-----13------13----------13---------13-------------|
G---------------------------------------------------|
D---------------------------------------------------| \
A---------------------------------------------------|  \
E---------------------------------------------------|   \
                                                        X2
                                                       /
e-----------------------------------10-10-----------|  /
B-----13------13----13-13-10-10-8-8-----------------| /
G---------------------------------------------------|
D---------------------------------------------------|
A---------------------------------------------------|
E---------------------------------------------------|


...Then there's a bit with the bass and vocals...

2:30-3:37

e---------------------------------------------------|
B---15----17---15----15---15----17---15---15--------|
G---------------------------------------------------|   x28
D---------------------------------------------------|
A---------------------------------------------------|
E---------------------------------------------------|

 ..then there's a bit with the bass in..


4:02-4:28
Do the chorus(x4)


And that's would what i could work out from it. =]

            
            
Suggest correction
Creating personal tab
Creating personal tab
You can edit any tab online and save it as your Personal.

You can edit, replace or remove any tab part or add personal notes – all changes will be seen only by you.

Personal tabs can be accessed anytime from any device, even offline.
Learn more »
Give kudos to tab author, rate the tab!
1 2 3 4 5
comments
print report bad tab
4 comments total. Showing first comments.
0 reply
hughh1000 90 Feb 18, 2009 02:52 AM

i would make my own but what youve got here is largely correct so ill just give you the rest of the parts and you can make a second version and post it up here with honours to me at the top of the tab:)

okay at the intro after 3 of just 13 (i suspect the 15 is played by guitar two after the 12s but here is how i play it:) )
e-------------------13--|
B-------------------15--|
G-----------------------|
D12-12-12-12-12-12------|
A-----------------------|
E-----------------------|

VERSE ( with some variations)
e-13-12--------|-------------13-12---|
B--------15p13-|-------15p13---------|
G--------------|--then---------------|occasionally switch
Guitar one D--------------|---------------------|
A--------------|---------------------|
E--------------|-----------|

e--------17------------|
B---15------18--17-----|
two G----------------------|
D----------------------|
A----------------------|
E----------------------|

CHORUS perfect(Y)

THE 'NEXT' BIT;) there are dead notes played here
e---------------------------------------------------|
B---x-x-13-x--x-x-x-x-13-x-x-x-13-x--x-x-x-x-13-----|
G---------------------------------------------------|
D---------------------------------------------------|
A---------------------------------------------------| \
E---------------------------------------------------| \
X2
/
e------------------------------------12-12-10-10----| /
B---x-x-13-x-x-x-x--13---13-13-10-10----------------|/
G---------------------------------------------------|
D---------------------------------------------------|
A---------------------------------------------------|
E---------------------------------------------------|

e---------------------------------------------------|
B--x-x-13-x--x-x-x-x-13-x-x-x-13-x--x-x-x-x---13----|
G---------------------------------------------------|
D---------------------------------------------------| \
A---------------------------------------------------| \
E---------------------------------------------------| \
X2
/
e--------------------------------------------10-10--| /
B--x-x-x-13-x--x-x-x-x-13----13-13-10-10-8-8--------| /
G---------------------------------------------------|
D---------------------------------------------------|
A---------------------------------------------------|
E---------------------------------------------------|

(now heres this bit corected)
...Then there's a bit with the bass and vocals...

2:30-3:01

e------17~------------------------------------------|
B-----------17---15~--------------------------------|
G---------------------------------------------------|
D---------------------------------------------------|
A---------------------------------------------------|
E---------------------------------------------------|

3:01- 4:05
e------17~------------------------------------------|
B---15--------17---15~------------------------------|
G---------------------------------------------------|
D---------------------------------------------------|
A---------------------------------------------------|
E---------------------------------------------------|

4:06 chorus from your tab:) theree

0 reply
hughh1000 90 Feb 18, 2009 02:54 AM

that spacked, heres the spacked parts neat
VERSE ( with some variations)
e-13-12--------|-------------13-12---|
B--------15p13-|-------15p13---------|
G--------------|--then---------------|occasionally switch
Guitar one D--------------|---------------------|
A--------------|---------------------|
E--------------|-----------|

e--------17------------|
B---15------18--17-----| Guitar Two
G----------------------|
D----------------------|
A----------------------|
E----------------------|

0 reply
hughh1000 90 Feb 18, 2009 02:56 AM

URGH! okay you get the idea

guest
You may want to rate the tab now too:
select rating
Wanna post a correction for this tab? Suggest correction