Oops, an error
Loading. Please wait.
We have an official What Went Down tab made by UG professional guitarists. Check out the tab »
×
by Foals
3,376 views 18 this week
1 commentread comment
1 2 3 4 5
x 8
add to favorites
×
Save as Personal and add changes to this tab that will be seen only by you. Learn more ›
×
You can save this tab as Personal to edit and correct it or add notes. All changes will be seen only by you. Learn more »
launch autoscroll
font size
0
reset
guitar tuner
edit
Autoscroll
slow
fast
+/-
esc
set tempo
stop
-------------------------------------------------------------------------------
                             WHAT WENT DOWN - Foals
-------------------------------------------------------------------------------
Tabbed by: Cait :) 
E-mail: caitsullivan57@gmail.com

Sounds badass with a lot of distortion or octave pedal :) Any ways to correct this, just comment :)

Tuning: Standard EADG

  Intro: Bass starts as  0:10s
G|-------------|
D|-------------|
A|-------------|x4
E|--6-8-3~~----| 
  
  Verse 1: 0:29 (drum beat kicks in)
G|-------------|     |-------------------|
D|-------------|     |-------------------|
A|-------------|x4   |-------------------|x12
E|--6-8-3~~----|     |--3-3-3-3-3-3-3-3--|
  
  Chorus: 1:17
G|---------------------------------------------------------------------------|
D|---------------------------------------------------------------------------|
A|---------------------------------------------------------------------------|x2
E|--6-6-6-3-3-3-5-5-5-5-3-3-3-3-3-3--6-6-6-3-3-3-8-8-8-8-5-5-5-5-5-5---------| 

  Verse 2: 1:33 (Bass enters at 1:36)
G|-------------|     |-------------------|
D|-------------|     |-------------------|
A|-------------|x4   |-------------------|x12
E|--6-8-3~~----|     |--3-3-3-3-3-3-3-3--|

  Chorus: 2:15
G|---------------------------------------------------------------------------|
D|---------------------------------------------------------------------------|
A|---------------------------------------------------------------------------|x4
E|--6-6-6-3-3-3-5-5-5-5-3-3-3-3-3-3--6-6-6-3-3-3-8-8-8-8-5-5-5-5-5-5---------|

  Bridge: 2:41
G|---------------(PLAY EACH NOTE 6 TIMES)------------------------------------------------------------------|
D|---------------------------------------------------------------------------------------------------------|
A|---------------------------------------------------------------------------------------------------------|
E|5--6--8--5--6--8--10--5--6--8--5--6--8--10--1--6--8--5--6--8--10--1--6--8--5--6--8--10--1--6--8--5--6--8-|

G|----------|
D|----------|
A|----------|
E|-10-x12---|

  3:25     3:39
G|---------------------------------------------------------------------------|
D|----------5-5-5-5-5-5-5-5-x16----------------------------------------------|
A|---------------------------------------------------------------------------|
E|-3~~~~~~-------------------------------------------------------------------|
  
  Chorus: 3:51
G|-----------------------------------------------------------------------------------|
D|-----------------------------------------------------------------------------------|
A|-----------------------------------------------------------------------------------|
E|--6-6-6-3-3-3-5-5-5-5-3-3-3-3-3-3--6-6-6-3-3-3-8-8-8-8-5-5-5-5-5-5--x10--3///10-10-|



| /  slide up
| \  slide down
| h  hammer-on
| p  pull-off
| ~  vibrato
| +  harmonic
| x  Mute note
===============================================================================

            
            
Suggest correction
Creating personal tab
Creating personal tab
You can edit any tab online and save it as your Personal.

You can edit, replace or remove any tab part or add personal notes – all changes will be seen only by you.

Personal tabs can be accessed anytime from any device, even offline.
Learn more »
comments
print report bad tab
1 comment total.
0 reply
alexfcardellach 10 Jul 19, 2017 12:01 PM

this song is in drop D

guest
You may want to rate the tab now too:
select rating
Wanna post a correction for this tab? Suggest correction