Oops, an error
Loading. Please wait.
We have an official What Went Down tab made by UG professional guitarists. Check out the tab »
×

What Went Down tab

version 4
version 4

Whole song

Interactive

by Foals
604 views 15 this week
no commentswrite comment
1 2 3 4 5
2 more votes to show rating
add to favorites
×
Save as Personal and add changes to this tab that will be seen only by you. Learn more ›
×
You can save this tab as Personal to edit and correct it or add notes. All changes will be seen only by you. Learn more »
launch autoscroll
font size
0
reset
how to read this tab
guitar tuner
edit
Autoscroll
slow
fast
+/-
esc
set tempo
stop
-------------------------------------------------------------------------------
                             What Went Down - Foals
-------------------------------------------------------------------------------
Tabbed by: Will Hunnisett
E-mail: ilovelaura@gmail.com

Tuning:

e|---------------------------------------------------------------------------|
B|---------------------------------------------------------------------------|
G|---------------------------------------------------------------------------|
D|---------------------------------------------------------------------------|
A|-1---3---------------------------------------------------------------------|
D|---------4----(x4)---------------------------------------------------------|

e|---------------------------------------------------------------------------|
B|---------------------------------------------------------------------------|
G|---------------------------------------------------------------------------|
D|---------------------------------------------------------------------------|
A|---------------------------------------------------------------------------|
D|--4 (Palm-muted, listen to song to get the timing right)-------------------|

e|---------------------------------------------------------------------------|
B|---------------------------------------------------------------------------|
G|---------------------------------------------------------------------------|
D|-----------------------------5 5 5 5 5 5 5 5 5 5 5 5 5 5 5 5 5 5 5 5 5 5 5 5|(Down stroke only and hard)
A|--1---3--------------------------------------------------------------------|
D|-----------4-----(x4) -----------------------------------------------------|

e|---------------------------------------------------------------------------|
B|---------------------------------------------------------------------------|
G|---------------------------------------------------------------------------|
D|---------------------------------------------------------------------------|
A|---------------------------------------------------------------------------|
D|--7-7-7-4-6-6-6-4-4-4-4-4-4-4-4-4------7-7-7-4-9-9-9-4-4-4-4-4-4-4-4-(x2)--|

e|---------------------------------------------------------------------------|
B|---------------------------------------------------------------------------|
G|---12-12-12-12-12-12-12-12-12-12-12-12-12-12-12-12-12-12-12-12-12-12-12----|
D|---------------------------------------------------------------------------|
A|---------------------------------------------------------------------------|
D|---------------------------------------------------------------------------|

REPEAT THIS AGAIN ^^

e|---------------------------------------------------------------------------|
B|---------------------------------------------------------------------------|
G|-14-12-10-12-14-12-10-12-12s17-14p12s10-10-12-14-12-10-12---(Repeat this for a bit)-|
D|---------------------------------------------------------------------------|
A|---------------------------------------------------------------------------|
D|---------------------------------------------------------------------------|

e|---------------------------------------------------------------------------|
B|---------------------------------------------------------------------------|
G|---------------------------------------------------------------------------|
D|---------------------------------------------------------------------------|
A|---------------------------------------------------------------------------|
D|----7-7-7-4-6-6-6-4-4-4-4-4-4-4-4-4------7-7-7-4-9-9-9-4-4-4-4-4-4-4-4-----|

Play this till the song finishes ^

************************************

| /   slide up
| \   slide down
| h   hammer-on
| p   pull-off
| ~   vibrato
| +   harmonic
| x   Mute note
| b   Bend
| pb  Pre-bend
| br  Bend release
| pbr Pre-bend release
| brb Bend release bend

************************************
Suggest correction
Creating personal tab
Creating personal tab
You can edit any tab online and save it as your Personal.

You can edit, replace or remove any tab part or add personal notes – all changes will be seen only by you.

Personal tabs can be accessed anytime from any device, even offline.
Learn more »
Give kudos to tab author, rate the tab!
1 2 3 4 5
comments
print report bad tab
guest
You may want to rate the tab now too:
select rating
Wanna post a correction for this tab? Suggest correction