Oops, an error
Loading. Please wait.

Hipnotízame Tab

version 2
version 2
2,756 views 1 this week
no commentswrite comment
1 2 3 4 5
please rate
add to favorites
launch autoscroll
font size
0
reset
how to read this tab
guitar tuner
Tab Pro tools
  • play this tab
  • loop segment
  • change instrument
  • show fretboard
  • metronome
×
Best way to learn
"Hipnotízame"
Autoscroll
slow
fast
+/-
esc
set tempo
stop
Contributor
Difficulty
novice
INTRO Y VERSO:

GUITARRA 1
---------------------------------------------------------------|
---------------------0-----0-----------------------------------|
------0-----0------7-----7-----7-----------0---------0---------|
----7-----7---7--5-----5-----5---5-----4-----4---4-----4-------|
--5-----4----------------------------2---2-----2---2-----2-----|
---------------------------------------------------------------|

GUITARRA 2
-5---5-0-0--------|
---3-------3-0----|
------------------|VA ALGO LENTO
------------------|
------------------|
------------------|

CORO: ESTOS ACORDES
---------------------------------------------------------|
---------------------------------0000000000000-----------|
-0-00000-0-00000-0-00000-0-00000-5555555555555-0-00000---|
-7-77777-5-55555-7-77777-5-55555-3333333333333-5-55555---|
-5-55555-7-77777-5-55555-3-33333-0000000000000-3-33333---|
---------------------------------------------------------|

 BESA-----ME,    HIPNOTIZAME, YANOMEIMPORTAMAS ROBAMEELALMAATRAPAME

TIENEN QUE AGARRAR EL RITMO

EL SOLO O PUENTE COMO LE QUIERAN LLAMAR ES ASI
CON DISTORCION EN NIVEL 5

----------------------|
----------------------|
----------------------|
------00000-00000-0---|ESTO SON
--000-77777-33333-0---|  2 VECES
--555-----------------|

--------------------|
--------------------|
--------------------|
-0/000--------------|Y DE ESTA FORMA
-2/333-2222-0000----|   CIERRA EL SOLO
-------0000-1111----|

EL OUTRO O FINAL CIERRA CON LOS ACORDES DEL CORO

ESTA ROLA SE LA DEDICO A MI NOVIA DANIELA, TE AMO!
comments
We did not receive enough feedback on this tab! Please rate:
print report bad tab
1 2 3 4 5
I want to post or [tab]
guest
You may want to rate the tab now too:
select rating
Please do not post tabs as comments. Select "correction" instead!