Oops, an error
Loading. Please wait.

Mas Caliente Que El Sol Bass Tab

1,772 views 1 this week
no commentswrite comment
1 2 3 4 5
please rate
add to favorites
launch autoscroll
font size
0
reset
guitar tuner
Autoscroll
slow
fast
+/-
esc
set tempo
stop
Help us to improve Ultimate-Guitar.com Take our survey!
×
Author
Difficulty
novice
Pues como no hay tab de esta rola, yo lo hise, esta sencilla

Intro
G|--------------------------------------------------------------------|
D|----------------------------3-5*---5*----3-5------------------------|
A|--3-1--------------------3h5----3h5---3h5-----------3-1---------3-1-|
E|------33~-----------------------------------33333333---33333333-----|
*NOTA: El * significa x16 la nota 

Verso(x3)
G|--------------------------------------------------------------------|
D|-5555555555555555---3-5555555555555555------------------------------|
A|-----------------3h5------------------------------------------------|
E|--------------------------------------------------------------------|

Coro
G|--------------------------------------------------------------------|
D|-----3-5------------------------------------------------------------|
A|--3h5-----------33---------33--------33-----------------------------|
E|--------33333333---33333333--33333333--33333333---------------------|


Variazion del Verso (Esto ya es en el final)
G|---------------------|
D|---55-5p3h5p3h55-----|
A|----------------33---|
E|---------------------|


Outro
G|----------------------------------------------------|
D|--3333333333333333---3333333333333333---------------|
A|------------------3-1----------------1-3~-----------|
E|----------------------------------------------------|

Pues hay esta ya ustedes lo acomodan
Dudas:nfsmw_panda@hotmail.com


Suggest correction
Give kudos to tab author, rate the tab!
1 2 3 4 5
comments
print report bad tab
guest
You may want to rate the tab now too:
select rating
Wanna post a correction for this tab? Suggest correction