Oops, an error
Loading. Please wait.

Veneno Vil Tab

version 1
version 1

Whole song

Interactive

14,154 views 12 this week
no commentswrite comment
1 2 3 4 5
accurate
x 4
add to favorites
launch autoscroll
font size
0
reset
how to read this tab
guitar tuner
Autoscroll
slow
fast
+/-
esc
set tempo
stop
Help us to improve Ultimate-Guitar.com Take our survey!
×
Author
-=Intro=-
  Fm#
e|--5--4------------|--5--4---------7--|]
B|---------7--6--7--|---------7--6-----|]
G|------------------|------------------|]
D|------------------|------------------|]
A|------------------|------------------|]
E|------------------|------------------|]

e|--5--4-----------|--3*2*0-----------------|]
B|--------7--6--7--|--------3*2*0-----------|]
G|-----------------|--------------3*2*0-----|]
D|-----------------|-------------------2*0--|]
A|-----------------|------------------------|]
E|-----------------|------------------------|]

-=Verso 1=-
  F#m
  Dicen que no conoció el amor
                                  A
  dicen que tiene maldito el corazón
  
  que no tiene salvación
  F#m
  dicen que es una mujer fatal
                                     A
  un paso en falso y te vuelves de cristal
  F#m
  como la fuerza de un huracán
                                         A
  y el apetito que tiene cualquier predador animal
  F#m
  con la ponzoña de un alacrán
                                         A
  con la inocencia de un niño y bajo la manga un puñal
                                         F#m
  mira sus ojos y juega en su juego y veras...

-=Coro=-
F#5  -  A5
  Uh, Uh, Uh
 Bm       D      
  Eres veneno vil. (x2)

-=Intro=-
Fm#
e|--5--4------------|--5--4---------7--|]
B|---------7--6--7--|---------7--6-----|]
G|------------------|------------------|]
D|------------------|------------------|]
A|------------------|------------------|]
E|------------------|------------------|]

e|--5--4-----------|--3*2*0-----------------|]
B|--------7--6--7--|--------3*2*0-----------|]
G|-----------------|--------------3*2*0-----|]
D|-----------------|-------------------2*0--|]
A|-----------------|------------------------|]
E|-----------------|------------------------|]

-=Verso 2=-
F#m
  Dicen que es como una maquina
					A
  nada se salva de una hembra tan voraz
F#m
  dicen que es como una víbora
				  A
  beso tras beso propaga su maldad
                                         F#m
  mira sus ojos y juega en su juego y veras...

-=Coro=-
F#5  -  A5
  Uh, Uh, Uh
 Bm       D      
  Eres veneno vil. (x2)

-=Solo=-
   F#5          G#5/A5  F#5               D
e|-------------------|--------------------3---|]
B|-------------------|--------------------2---|]
G|-------------------|--------------------3---|]
D|--4----------------|--4-----------------0---|]
A|----4--2--0--2--4--|----4--2--0--2--4-------|]
E|-------------------|------------------------|]
 
   F#5          G#5/A5 C#5/D5         B5
e|-------------------|------------------------|]
B|-------------------|------------------------|]
G|-------------------|---------------------4--|]
D|--4----------------|--4--0----0------0-4----|]
A|----4--2--0--2--4--|--------4---4--2--------|]
E|-------------------|------------------------|]
 
     F#5         G#5/A5  C#5/D5           B5
e|-------------------|--------------------------|]
B|-------------------|--------------------------|]
G|-------------------|--------------------------|]
D|--4----------------|--4--0--------------------|]
A|----4--2--0--2--4--|--------4-2-0-2--2-0-2----|]
E|-------------------|-----------------------2--|]

-=Intro=-
Fm#
e|--5--4------------|--5--4---------7--|]
B|---------7--6--7--|---------7--6-----|]
G|------------------|------------------|]
D|------------------|------------------|]
A|------------------|------------------|]
E|------------------|------------------|]

e|--5--4-----------|--3*2*0-----------------|]
B|--------7--6--7--|--------3*2*0-----------|]
G|-----------------|--------------3*2*0-----|]
D|-----------------|-------------------2*0--|]
A|-----------------|------------------------|]
E|-----------------|------------------------|]

-=Verso 3=-
F#m
  Dicen que no conoció el amor
                                  A
  dicen que tiene maldito el corazón
  
  que no tiene salvación
  F#m
  dicen que es una mujer fatal
                                     A
  un paso en falso y te vuelves de cristal
  F#m
  como la fuerza de un huracán
                                         A
  y el apetito que tiene cualquier predador animal
  F#m
  una catástrofe natural
                                 A
  tiene los ojos de fuego y corazón de metal
                                           F#m
  mira sus ojos y juega en su juego y veras...

-=Coro=-
F#m
  Uh, Uh, Uh
 Bm       D      
  Eres veneno vil. (x2)

-=Solo=-
   F#5          G#5/A5  F#5               D5
e|-------------------|--------------------3---|]
B|-------------------|--------------------2---|]
G|-------------------|--------------------3---|]
D|--4----------------|--4-----------------0---|]
A|----4--2--0--2--4--|----4--2--0--2--4-------|]
E|-------------------|------------------------|]
 
   F#5          G#5/A5 C#5/D5         B5
e|-------------------|------------------------|]
B|-------------------|------------------------|]
G|-------------------|---------------------4--|]
D|--4----------------|--4--0----0------0-4----|]
A|----4--2--0--2--4--|--------4---4--2--------|]
E|-------------------|------------------------|]

     F#5         G#5/A5  C#5/D5           B5
e|-------------------|--------------------------|]
B|-------------------|--------------------------|]
G|-------------------|--------------------------|]
D|--4----------------|--4--0--------------------|]
A|----4--2--0--2--4--|--------4-2-0-2--2-0-2----|]
E|-------------------|-----------------------2--|]

-=Final=-
 F#m             A
  Eres veneno vil y tu mordida es mortal
 F#m                        D    
  tras de ese vientre animal
 F#m             A
  eres veneno vil de mordedura fatal
 F#m                        D    
  tras de ese vientre animal
 Bm              F#m
  eres veneno vil


Espero sea d' su agrado, comentarios, dudas o correcciones ragarideath@hotmail.com.
Tijuana, BC, México    Ramón Guillermo Galáz Rios
Suggest correction
What's this?
You can suggest a correction to this tab. Community and Mods will review your correction and vote to approve or reject it.
comments
print report bad tab
guest
You may want to rate the tab now too:
select rating
Please do not post tabs as comments. Select "correction" instead!