Oops, an error
Loading. Please wait.

House Of The King tab

version 1
version 1

Whole song

Interactive

by Focus
3,207 views 1 this week
no commentswrite comment
1 2 3 4 5
3 more votes to show rating
add to favorites
×
Save as Personal and add changes to this tab that will be seen only by you. Learn more ›
×
You can save this tab as Personal to edit and correct it or add notes. All changes will be seen only by you. Learn more »
launch autoscroll
font size
0
reset
how to read this tab
guitar tuner
edit
Autoscroll
slow
fast
+/-
esc
set tempo
stop
Author
Difficulty
FOCUS -=- HOUSE OF THE KING

Hello, folks!!!I listened Focus a lot, and looked for tabs on the internet...
I couldn't find a tab version of HOUSE OF THE KING, only the chords, so i thought: 
throw a tabbed one in!!!
So here it is, people... just enjoy....


INTRO:
e||-----------------------------------------------------------------||
B||-----------------------------------------------------------------||
G||--2--2-2------------4--4-4-4-4-----4--4-4------------------------||
D||--2--2-2---2--2-2---4--4-4-4-4-----4--4-4---2--2-2---4--4-4-4-4--||
A||--0--0-0---2--2-2---2--2-2-2-2-----2--2-2---2--2-2---4--4-4-4-4--||
E||-----------0--0-0---------------------------0--0-0---2--2-2-2-2--||


e||-----------------------------------------------------------------||
B||-----------------------------------------------------------------||
G||-----------7--7-7------------------2--2-2---7--7-7---2--2-2-2-2--||
D||--2--2-2---7--7-7---5--5-5-5-5-----2--2-2---7--7-7---2--2-2-2-2--||
A||--2--2-2---5--5-5---5--5-5-5-5-----0--0-0---5--5-5---0--0-0-0-0--||
E||--0--0-0------------3--3-3-3-3-----------------------------------||


e||--------------------------------||
B||--------------------------------||
G||-----------7--7-7---2-----------||
D||--2--2-2---7--7-7---2-----------||
A||--2--2-2---5--5-5---0-----------||
E||--0--0-0------------------------||


VERSE:    (2X)
e|-----------------------------------------------------------------|
B|-----------------------------------------------------------------|
G|-----------7--7-7---------------------------7--7-7---------------|
D|--5--5-5---7--7-7---7--7-7-7-7-----7--7-7---7--7-7---2--2-2-2-2--|
A|--5--5-5---5--5-5---7--7-7-7-7-----7--7-7---5--5-5---2--2-2-2-2--|
E|--3--3-3------------5--5-5-5-5-----5--5-5------------0--0-0-0-0--|


e|-----------------------------------------------------------------|
B|-----------------------------------------------------------------|
G|-----------5--5-5------------------------------------2--2-2-2-2--|
D|--3--3-3---5--5-5---5--5-5-5-5-----3--3-3---2--2-2---2--2-2-2-2--|
A|--3--3-3---3--3-3---5--5-5-5-5-----3--3-3---2--2-2---0--0-0-0-0--|
E|--1--1-1------------3--3-3-3-3-----1--1-1---0--0-0---------------|


e||-----------------------------------------------------------------||
B||-----------------------------------------------------------------||
G||--2--2-2---7--7-7------------------------------------2--2-2-2-2--||
D||--2--2-2---7--7-7---2--2-2-2-2-----3--3-3---5--5-5---2--2-2-2-2--||
A||--0--0-0---5--5-5---2--2-2-2-2-----3--3-3---5--5-5---0--0-0-0-0--||
E||--------------------0--0-0-0-0-----1--1-1---3--3-3---------------||


e||-----------------------------------------------------------------||
B||-----------------------------------------------------------------||
G||--2--2-2---7--7-7------------------------------------2--2-2-2-2--||
D||--2--2-2---7--7-7---2--2-2-2-2-----3--3-3---5--5-5---2--2-2-2-2--||
A||--0--0-0---5--5-5---2--2-2-2-2-----3--3-3---5--5-5---0--0-0-0-0--||
E||--------------------0--0-0-0-0-----1--1-1---3--3-3---------------||


BRIDGE:  (2X)
e||----------------------------------------------||
B||----------------------------------------------||
G||---------------2---------------------------5--||
D||--7------------2-------------2------5------5--||
A||--7------------0-------------2------5------3--||
E||--5--------------------------0------3---------||


VERSE:
e||-----------------------------------------------------------------|
B||-----------------------------------------------------------------|
G||-----------7--7-7---------------------------7--7-7---------------|
D||--5--5-5---7--7-7---7--7-7-7-7-----7--7-7---7--7-7---2--2-2-2-2--|
A||--5--5-5---5--5-5---7--7-7-7-7-----7--7-7---5--5-5---2--2-2-2-2--|
E||--3--3-3------------5--5-5-5-5-----5--5-5------------0--0-0-0-0--|


e||-----------------------------------------------------------------||
B||-----------------------------------------------------------------||
G||-----------5--5-5------------------------------------2--2-2-2-2--||
D||--3--3-3---5--5-5---5--5-5-5-5-----3--3-3---2--2-2---2--2-2-2-2--||
A||--3--3-3---3--3-3---5--5-5-5-5-----3--3-3---2--2-2---0--0-0-0-0--||
E||--1--1-1------------3--3-3-3-3-----1--1-1---0--0-0---------------||


e||-----------------------------------------------------------------||
B||-----------------------------------------------------------------||
G||--2--2-2---7--7-7------------------------------------2--2-2-2-2--||
D||--2--2-2---7--7-7---2--2-2-2-2-----3--3-3---5--5-5---2--2-2-2-2--||
A||--0--0-0---5--5-5---2--2-2-2-2-----3--3-3---5--5-5---0--0-0-0-0--||
E||--------------------0--0-0-0-0-----1--1-1---3--3-3---------------||


e||-----------------------------------------------------------------||
B||-----------------------------------------------------------------||
G||--2--2-2---7--7-7------------------------------------2--2-2-2-2--||
D||--2--2-2---7--7-7---2--2-2-2-2-----3--3-3---5--5-5---2--2-2-2-2--||
A||--0--0-0---5--5-5---2--2-2-2-2-----3--3-3---5--5-5---0--0-0-0-0--||
E||--------------------0--0-0-0-0-----1--1-1---3--3-3---------------||


GUITAR SOLO:   (2X)
e||--------------------------------||
B||--------------------------------||
G||--7--------5--------5--------7--||
D||--7--------5--------5--------7--||
A||--5--------3--------3--------5--||
E||--------------------------------||


e||--------------------------------||
B||--------------------------------||
G||-----------2--------------------||
D||--2--------2--------2--------2--||
A||--2--------0--------2--------2--||
E||--0-----------------0--------0--||

INTRO II:
e||-----------------------------------------------------------------||
B||-----------------------------------------------------------------||
G||--2--2-2---7--7-7------------------------------------2--2-2-2-2--||
D||--2--2-2---7--7-7---5--5-5-5-5-----3--3-3---5--5-5---2--2-2-2-2--||
A||--0--0-0---5--5-5---5--5-5-5-5-----3--3-3---5--5-5---0--0-0-0-0--||
E||--------------------3--3-3-3-3-----1--1-1---3--3-3---------------||


VERSE:    (2X)
e|-----------------------------------------------------------------|
B|-----------------------------------------------------------------|
G|-----------7--7-7---------------------------7--7-7---------------|
D|--5--5-5---7--7-7---7--7-7-7-7-----7--7-7---7--7-7---2--2-2-2-2--|
A|--5--5-5---5--5-5---7--7-7-7-7-----7--7-7---5--5-5---2--2-2-2-2--|
E|--3--3-3------------5--5-5-5-5-----5--5-5------------0--0-0-0-0--|


e||-----------------------------------------------------------------||
B||-----------------------------------------------------------------||
G||-----------5--5-5------------------------------------2--2-2-2-2--||
D||--3--3-3---5--5-5---5--5-5-5-5-----3--3-3---2--2-2---2--2-2-2-2--||
A||--3--3-3---3--3-3---5--5-5-5-5-----3--3-3---2--2-2---0--0-0-0-0--||
E||--1--1-1------------3--3-3-3-3-----1--1-1---0--0-0---------------||


e||-----------------------------------------------------------------||
B||-----------------------------------------------------------------||
G||--2--2-2---7--7-7------------------------------------2--2-2-2-2--||
D||--2--2-2---7--7-7---2--2-2-2-2-----3--3-3---5--5-5---2--2-2-2-2--||
A||--0--0-0---5--5-5---2--2-2-2-2-----3--3-3---5--5-5---0--0-0-0-0--||
E||--------------------0--0-0-0-0-----1--1-1---3--3-3---------------||


e||-----------------------------------------------------------------||
B||-----------------------------------------------------------------||
G||--2--2-2---7--7-7------------------------------------2--2-2-2-2--||
D||--2--2-2---7--7-7---2--2-2-2-2-----3--3-3---5--5-5---2--2-2-2-2--||
A||--0--0-0---5--5-5---2--2-2-2-2-----3--3-3---5--5-5---0--0-0-0-0--||
E||--------------------0--0-0-0-0-----1--1-1---3--3-3---------------||

            
            
Suggest correction
Creating personal tab
Creating personal tab
You can edit any tab online and save it as your Personal.

You can edit, replace or remove any tab part or add personal notes – all changes will be seen only by you.

Personal tabs can be accessed anytime from any device, even offline.
Learn more »
Give kudos to tab author, rate the tab!
1 2 3 4 5
comments
print report bad tab
guest
You may want to rate the tab now too:
select rating
Wanna post a correction for this tab? Suggest correction