Oops, an error
Loading. Please wait.

I Just Want To Make Love To You intro tab

version 1
version 1

Intro

Whole song

Interactive

by Foghat
9,297 views 9 this week
2 commentsread comments
1 2 3 4 5
x 5
add to favorites
×
Save as Personal and add changes to this tab that will be seen only by you. Learn more ›
×
You can save this tab as Personal to edit and correct it or add notes. All changes will be seen only by you. Learn more »
launch autoscroll
font size
0
reset
how to read this tab
guitar tuner
edit
Autoscroll
slow
fast
+/-
esc
set tempo
stop
FOGHAT-I JUST WANT TO MAKE LOVE TO YOU
well, this is the first tab i've submitted. i've been looking for the intro and could 
find it so i figured it out myself. probably not perfect but sounds right when i play it.


|--------------------------------------|
|--------------------------------------|
|7b------7br-5---5-5-------------------|x2 (2nd guitar echos)
|--------------7------5-7--------------|
|--------------------------------------|
|--------------------------------------|


|--------------------------------------|
|--------------------------------------|
|7br-5--------7br-5--------------------|keep repeating and get faster
|------5-7----------5-7----------------|(2nd guitar echoing faster)
|--------------------------------------|
|--------------------------------------|

 A       D C     A      D C
|--------------------------------------|
|--------------------------------------|
|--------7-5------------7-5------------|
|7-7-7-7-7-5----7-7-7-7-7-5------------|keep repeating
|7-7-7-7-5-3----7-7-7-7-5-3------------|
|5-5-5-5--------5-5-5-5----------------|


~Dash
Suggest correction
Creating personal tab
Creating personal tab
You can edit any tab online and save it as your Personal.

You can edit, replace or remove any tab part or add personal notes – all changes will be seen only by you.

Personal tabs can be accessed anytime from any device, even offline.
Learn more »
comments
print report bad tab
2 comments total.
0 reply
hyphensprint 303 Jun 30, 2006 02:20 PM

the A (577) part should be three times and the little riff at the begining is a little off but quite close

0 reply
rockhard55 10 Jun 10, 2010 12:21 PM

i think it goes more like this

----------------------------------------
----------------------------------------
-7b--7br-7-7-5h-----5-5-----------------
----------------7h------5-7-------------
----------------------------------------
----------------------------------------

guest
Wanna post a correction for this tab? Suggest correction