Oops, an error
Loading. Please wait.

Sarah Lee tab

by Foghat
55 views 3 this week
no commentswrite comment
1 2 3 4 5
3 more votes to show rating
add to favorites
×
Save as Personal and add changes to this tab that will be seen only by you. Learn more ›
×
You can save this tab as Personal to edit and correct it or add notes. All changes will be seen only by you. Learn more »
launch autoscroll
font size
0
reset
how to read this tab
guitar tuner
edit
Autoscroll
slow
fast
+/-
esc
set tempo
stop
Author
Difficulty
Foghat - Sarah Lee
Tabbed by selkayann

[Intro]

Rhythm:
e|----------------------------------|----------------------------------|
B|-------2-------2----2--2-------2--|-------2-------2----2--2-------2--|
G|---2----2---2---2-------2---2---2-|---2----2---2---2-------2---2---2-|
D|----------------------------------|----------------------------------|
A|-0---0----------------------------|-0---0----------------------------|
E|----------3---3---2---2---1---1---|----------3---3---2---2---1---1---|

Lead:
e|----------------------------------|----------------------------------|
B|----------------------------------|----------------------------------|
G|----------------------------7p6h7-|-7b9--------------7TR6___________-|
D|----------------------------------|----------------------------------|
A|----------------------------------|----------------------------------|
E|----------------------------------|----------------------------------|

Rhythm:
e|----------------------------------|
B|-2--------------------------------|
G|-2--------------------------2-----|
D|-2--------------------------------|
A|-0---------------------0-3b4--3b4-|
E|----------------------------------|

e|----------------------------------|
B|----------------------------------|
G|-7p6------------------------------|
D|-----7----------------------------|
A|----------------------------------|
E|----------------------------------|

From now until the solo, only rhythm.
e|---------------------------------|-------------------------0--0--0-|
B|---2--2--2--2--2---3--3--3--3--3-|---3--3--3--3--3---2--3--2--2--2-|
G|----2--2--2--2------2--2--2--2---|----0--0--0--0------2--2--0--0---|
D|-----2--2--2--2------4--4--4--4--|-0---0--0--0--0------2--2--2--2--|
A|-0---------------0---------------|-----------------0---------------|
E|---------------------------------|---------------------------------|

e|---------------------------------|---------------------------------|
B|---2--2--2--2--2---3--3--3--3--3-|---3--3--3--3--3---2--3--2-------|
G|----2--2--2--2------2--2--2--2---|----0--0--0--0------2--2---------|
D|-----2--2--2--2------4--4--4--4--|-0---0--0--0--0------2--2--------|
A|-0---------------0---------------|-----------------0---------------|
E|---------------------------------|---------------------------------|

[Verse]

e|---------------------------------|---------------------------------|
B|---2--2--2--2--2---3--3--3--3--3-|---3--3--3--3--3---2--3--2--2--2-|
G|----2--2--2--2------2--2--2--2---|----0--0--0--0------2--2--2--2---|
D|-----2--2--2--2------4--4--4--4--|-0---0--0--0--0------2--2--2--2--|
A|-0---------------0---------------|-----------------0---------------| x4
E|---------------------------------|---------------------------------|

[Chorus]

e|---------------------------------|
B|---3--3--3--3--3---2--3--2--2--2-|
G|----0--0--0--0------2--2--2--2---|
D|-0---0--0--0--0------2--2--2--2--| x3
A|-----------------0---------------|
E|---------------------------------|

e|-3---------------2---------------|-------------------|
B|-3---------------3---------------|-2-----------------|
G|-0---------------2---------------|-2-----------------|
D|-0---------------0---------------|-2-----------------|
A|-2-------------------------------|-0-----------------|
E|-3-------------------------------|-------------------|

[Verse]

e|---------------------------------|---------------------------------|
B|---2--2--2--2--2---3--3--3--3--3-|---3--3--3--3--3---2--3--2--2--2-|
G|----2--2--2--2------2--2--2--2---|----0--0--0--0------2--2--2--2---|
D|-----2--2--2--2------4--4--4--4--|-0---0--0--0--0------2--2--2--2--|
A|-0---------------0---------------|-----------------0---------------| x4
E|---------------------------------|---------------------------------|

[Chorus]

e|---------------------------------|
B|---3--3--3--3--3---2--3--2--2--2-|
G|----0--0--0--0------2--2--2--2---|
D|-0---0--0--0--0------2--2--2--2--|
A|-----------------0---------------| x3
E|---------------------------------|

e|-3---------------2---------------|-------------------|
B|-3---------------3---------------|-2-----------------|
G|-0---------------2---------------|-2-----------------|
D|-0---------------0---------------|-2-----------------|
A|-2-------------------------------|-0-----------------|
E|-3-------------------------------|-------------------|

[Solo]

e|-------|----------------------------------|-----------5------------------------------|
B|-------|----------------------------------|------------------------5-----------------|
G|-----2-|-4b6r4-2------2h4-4b7-4b7-4b7r4-2-|-----2-4b5-pb5r4-----2h4-pb4r2-2h4p2---2--|
D|-2h4---|----------2h4---------------------|-2h4-------------2h4-----------------4----|
A|-------|----------------------------------|------------------------------------------|
E|-------|----------------------------------|------------------------------------------|

e|------------------------------------|-------------------5-------2------------|
B|------------------------------------|----------------------------------------|
G|-4b6r4-2------2-2h4-4b7-4b7-4b7r4-2-|-----2-2-----2-4b5-pb5r4b5-pb5r4-2---2/-|
D|----------2h4-----------------------|-2h4-----2h4----------------------2h4---|
A|------------------------------------|----------------------------------------|
E|------------------------------------|----------------------------------------|

e|----------------------------------------------|
B|-12b14r12-10----10h12-12b15-12b15-12b15r12-10-|
G|------------9h11------------------------------|
D|----------------------------------------------|
A|----------------------------------------------|
E|----------------------------------------------|

e|-10---10----10----10----------------------------12-------------------------|
B|--12p10-12p10-12p10-12p10-12p10-13p12p10-10-12b14-pb13r12-10-12---10-------|
G|------------------------12----12-------11-----------------------11---------|
D|---------------------------------------------------------------------------|
A|---------------------------------------------------------------------------|
E|---------------------------------------------------------------------------|

e|----------------------------------------------|
B|-12b14r12-10----10h12-12b15-12b15-12b15r12-10-|
G|------------9h11------------------------------|
D|----------------------------------------------|
A|----------------------------------------------|
E|----------------------------------------------|

e|-10---10----10----10----------------------------12-------------------------|
B|--12p10-12p10-12p10-12p10-12p10-13p12p10-10-12b14-pb13r12-10-12---10/------|
G|------------------------12----12-------11-----------------------11---------|
D|---------------------------------------------------------------------------|
A|---------------------------------------------------------------------------|
E|---------------------------------------------------------------------------|

e|-------10------------------------------15----------------------------------|
B|---------13/15-15-15-15-16-15-13-15b17--pb17r15p14-15p14-15p14-15-15b17----|
G|-12b14---------------------------------------------------------------------|
D|---------------------------------------------------------------------------|
A|---------------------------------------------------------------------------|
E|---------------------------------------------------------------------------|

e|----15b17-pb17r15----------------------------------------------------------|
B|-13---------------13h15-13b14----13-15-15-16p15p13-------13b14----13-------|
G|------------------------------14-------------------14-14-------14----------|
D|---------------------------------------------------------------------------|
A|---------------------------------------------------------------------------|
E|---------------------------------------------------------------------------|

e|----------------------15------------------------------------------------------|
B|-15p14-15-15p14-15b17--pb17r15-13-15-15-15-15-15-15b16r15p13-------13b14---13-|
G|-------------------------------------------------------------14-14-------14---|
D|------------------------------------------------------------------------------|
A|------------------------------------------------------------------------------|
E|------------------------------------------------------------------------------|

e|-------15-----------------15-------------|---------------------------------|
B|-15b17----15b17~----15b17--pb17r15-13b14-|---------------------------------|
G|-----------------------------------------|-14-------------------------2----|
D|-----------------------------------------|---------------------------------|
A|-----------------------------------------|----------------------0-3b4--3b4-|
E|-----------------------------------------|---------------------------------|

[Verse]

e|---------------------------------|---------------------------------|
B|---2--2--2--2--2---3--3--3--3--3-|---3--3--3--3--3---2--3--2--2--2-|
G|----2--2--2--2------2--2--2--2---|----0--0--0--0------2--2--2--2---|
D|-----2--2--2--2------4--4--4--4--|-0---0--0--0--0------2--2--2--2--|
A|-0---------------0---------------|-----------------0---------------|
E|---------------------------------|---------------------------------| x3

e|---------------------------------|------------------|
B|---2--2--2--2--2---3--3--3--3--3-|---3--3--3--3--3--|
G|----2--2--2--2------2--2--2--2---|----0--0--0--0----|
D|-----2--2--2--2------4--4--4--4--|-0---0--0--0--0---|
A|-0---------------0---------------|------------------|
E|---------------------------------|------------------|

[Outro]

Rhythm:
e|----------------------------------|----------------------------------|-------|
B|-------2-------2----2--2-------2--|-------2-------2----2--2-------2--|-2-----|
G|---2----2---2---2-------2---2---2-|---2----2---2---2-------2---2---2-|-2-----|
D|----------------------------------|----------------------------------|-2-----|
A|-0---0----------------------------|-0---0----------------------------|-0-----|
E|----------3---3---2---2---1---1---|----------3---3---2---2---1---1---|-------|

Lead:
e|----------------------------------|----------------------------------|-------|
B|----------------------------------|----------------------------------|-2-----|
G|---------------7p6h7-7b9----------|-7TR6____________-7p6-------------|-2-----|
D|----------------------------------|----------------------7-----------|-2-----|
A|----------------------------------|----------------------------------|-0-----|
E|----------------------------------|----------------------------------|-------|


************************************

| h   Hammer-on
| p   Pull-off
| r   Release
| b   Bend
| pb  Pre-bend
| /   Slide up
| ~   Vibrato
| TR  Trill

************************************

            
            
Suggest correction
Creating personal tab
Creating personal tab
You can edit any tab online and save it as your Personal.

You can edit, replace or remove any tab part or add personal notes – all changes will be seen only by you.

Personal tabs can be accessed anytime from any device, even offline.
Learn more »
Give kudos to tab author, rate the tab!
1 2 3 4 5
comments
print report bad tab
guest
You may want to rate the tab now too:
select rating
Wanna post a correction for this tab? Suggest correction