Oops, an error
Loading. Please wait.

Slow Ride Chords

version 1
version 1

Whole song

Interactive

80,784 views 69 this week
4 commentsread comments
1 2 3 4 5
x 22
add to favorites
launch autoscroll
font size
0
reset
transpose
0
reset
display chords
guitar tuner
Autoscroll
slow
fast
+/-
esc
set tempo
stop
Help us to improve Ultimate-Guitar.com Take our survey!
×
This is "Slow Ride" by Foghat
as heard on the "Dazed and Confused" Soundtrack

Chords:

A  577655
D  X57775
C  X35553

This song is not hard to play, at least the part I know.


A         D  C  A
Slow ride
A            D  C  A
take it easy

etc, etc

The "slap bass" part is just this:

e----------------------------------|
B----------------------------------|
G----------------------------------|
D----------------------------------|
A----------------3--1--------------|
E--5-5-5-5-5--5--------5-5--5------|

And so on.
Suggest correction
comments
print report bad tab
4 comments total. Showing first comments.
0 reply
Stratslasher515 120 Oct 30, 2007 09:47 PM

thank you rob alberts...u rock

+3 reply
$marty 31 Jul 14, 2008 01:34 PM

nice thanks bt a think that the bass is rong i think its
G----------------------------------|
D----------------------------------|
A----------------5--3--------------|
E--5-5-5-5-5--5--------5-5--5------|

0 reply
BcBlvd 10 May 12, 2009 07:10 PM

This may not be 100%, I dunno, but it makes for a very easy to play and goo sounding version... Thank you!

guest
You may want to rate the tab now too:
select rating
Wanna post a correction for this tab? Suggest correction