Oops, an error
Loading. Please wait.

Slow Ride Bass Tab

version 1
version 1

Solo

Whole song

Interactive

11,625 views 6 this week
no commentswrite comment
1 2 3 4 5
excellent!
x 3
add to favorites
launch autoscroll
font size
0
reset
guitar tuner
Autoscroll
slow
fast
+/-
esc
set tempo
stop
Help us to improve Ultimate-Guitar.com Take our survey!
×
This is such a great song on bass but no one even attempted the bass solo part anywhere 
I figured I'd give it a shot.

the break starts around the 4:20 mark of the song

bass comes in at 4:29
G------------------------------------------|
D-------------19---------------------------|
A----22-19-22------------------------------|
E------------------------------------------|

4:34
G------------------------------------------|
D-------------19h22p19-------\\\\\\--------|
A----22-19-22------------------------------|
E------------------------------------------|

4:53
G------------------------------------------------------------------|
D---------------0h4p0-5h7p5----------------------------------------|
A--12\--0--0-0--------------0-0------------------------------------|
E-------------------------------------2--3-------------------------|

4:58
G------------------------------------------------------------------|
D----------0h7p0-5h7p5-------0h7p0-10h11---------------------------|
A--0--0-0--------------0-0-----------------------------------------|
E------------------------------------------------------------------|

5:02
G------------------------------------------------------------------|
D----------0h7p0-5-4-----------------------------------------------|
A--0--0-0------------5-0-0-4/7-7-------12\-------------------------|
E------------------------------------------------------------------|

5:07
G-----------------------------------------------------------------|
D----------0h5p0h4p0-------------0h5p0h7p0h9p0h11h12\-------------|
A--0--0-0------------7-5--0-0-------------------------------------|
E-----------------------------------------------------------------|

5:11
G----------------------------------------------------------------------7---|
D----------5p4---4h5-----------------------------------------------4/7-----|
A--0--0-0-------------0--0-0--0--------0--0-0---4-0---------0--0-0-------0-|
E-------------------------------1-2-3----------------2-3--3----------------|

5:20
G--------------------------------------------------------------------|
D---0h5p0h4--------7-----------------7-4-5---4-----------------------|
A-----------5--0-----0---4b--0--0-0--------5---0-4-5-----------------|
E----------------------------------------------------3-3-3-5---------|

5:27
G---------------12-12-12-12-12-12-14--------------------------------|
D-------------------------------------------------------------------|  x3
A--0--0--0--0-------------------------------------------------------|
E-------------------------------------------------------------------|

5:40
G--------------------------------------------------------------------|
D---------------5-5-5-5-5-5-7----------------------------------------|repeat until
A--0--0--0--0--------------------------------------------------------|
E--------------------------------------------------------------------|

6:23
G--------------------------------5-5----------------------------------|
D-------------------------5-5-5-------5-7-----------------------------|
A-0-0--0--0-0--0--0-0--0----------------------------------------------|
E---------------------------------------------------------------------|

6:27
G--------------------------------5p4h5h7---------------------------|
D--------------------------5-5-5---------5-7-----------------------|
A--0-0--0--0-0--0--0-0--0------------------------------------------|
E------------------------------------------------------------------|

The rest of the song hangs on A with slight variations of the pieces above
The tempo of the song gets faster as the song goes on as well

It's not perfect but even with improv in the key of A does well for the song.
Feel free to add suggestions/comments
Suggest correction
Give kudos to tab author, rate the tab!
1 2 3 4 5
comments
print report bad tab
guest
You may want to rate the tab now too:
select rating
Wanna post a correction for this tab? Suggest correction