Oops, an error
Loading. Please wait.

Slow Ride bass

version 2
version 2

Whole song

Interactive

by Foghat
6,339 views 3 this week
3 commentsread comments
1 2 3 4 5
x 8
add to favorites
×
Save as Personal and add changes to this tab that will be seen only by you. Learn more ›
×
You can save this tab as Personal to edit and correct it or add notes. All changes will be seen only by you. Learn more »
launch autoscroll
font size
0
reset
guitar tuner
backing track
0:00
0:00
edit
Autoscroll
slow
fast
+/-
esc
set tempo
stop
Author
Tabbers playing skills
beginner ++
“Slow ride” by Foghat
Bassline by Craig MacGregor
Bassline tabbed by Dan Bogosian (UtBDan)
Visit UtBDan’s band’s website at:
www.utbrocks.com


^ = bend

INTRO (very beginning):

CHORUS:
G-------------------|
D-------------------|
A--------------5-3--|
E--55-555-555-5-----|

VERSE:
               S P S P S P S
G-------7--5-----------------|
D----------------7---5---7---|
A----------------------------|
E--5--5--------5---3---5---0-|

   S  S        S P S P  P P
G-------7--5-----------------|
D----------------7---5--7-7^-|
A----------------------------|
E--5--5--------5---3---------|

               S P S P S P S
G-------7--5-----------------|
D----------------7---5---7---|
A----------------------------|
E--5--5--------5---3---5---0-|

   SP SP       S P S P S P S
G-------7--5------------------|
D---7--7---------7---5---7----|
A-----------------------------|
E--5--5--------5---3---5---0--|

END OF VERSE:
G-----------------|
D-----------------|
A--7-----7~~~~/14-|
E-----------------|

G-----------------|
D-----------------|
A-----------------|
E--55-555-555-555-|

G--------X1214~~--17--|
D---------------------|
A--7------------------|
E---------------------|

END OF CHORUS:
G---------------------------------------|
D---------------------------------------|
A-----5-5-55------5-5-55----------------|
E--55----------55--------55--55--55--55-|

G--------------------------------------------|
D--------------------------------------------|
A-----5-5-55------5-5-55---55-3-2-00-2-------|
E--55----------55----------------------5^-5--|

POST-CHORUS:
G----------------------|
D-------------7--------|
A---4-5-6-7-----6^-5---|
E-5------------------5-|

G---------------757-5---|
D-------------7-------7-|
A---4-5-6-7-------------|
E-5---------------------|


“BASS SOLO” (while guitar’s holding it and bass does quick fill):
G-19--7-75--------------|
D--------7--75----------|
A-------------7--7-5----|
E-----------------------|

            
            
Suggest correction
Creating personal tab
Creating personal tab
You can edit any tab online and save it as your Personal.

You can edit, replace or remove any tab part or add personal notes – all changes will be seen only by you.

Personal tabs can be accessed anytime from any device, even offline.
Learn more »
comments
print report bad tab
3 comments total.
0 reply
JohnJimJoeBob 10 Feb 27, 2007 04:48 PM

The only reason you get two stars instead of one is because you managed to at least get the main riff right.

This tab should go away quietly.

0 reply
kingfish 157 Mar 01, 2007 11:10 PM

not accurate

0 reply
<PAHKASIKA> 10 Apr 10, 2007 05:51 AM

can some one make good one from this one please...

guest
You may want to rate the tab now too:
select rating
Wanna post a correction for this tab? Suggest correction