Oops, an error
Loading. Please wait.

Third Time Lucky tab

version 2
version 2

Whole song

Interactive

by Foghat
778 views 1 this week
no commentswrite comment
1 2 3 4 5
3 more votes to show rating
add to favorites
×
Save as Personal and add changes to this tab that will be seen only by you. Learn more ›
×
You can save this tab as Personal to edit and correct it or add notes. All changes will be seen only by you. Learn more »
launch autoscroll
font size
0
reset
how to read this tab
guitar tuner
edit
Autoscroll
slow
fast
+/-
esc
set tempo
stop
#----------------------------------PLEASE NOTE---------------------------------#
#This file is the author's own work and represents their interpretation of the #
#song. You may only use this file for private study, scholarship, or research. #
#------------------------------------------------------------------------------##

                   THIRD TIME LUCKY (FIRST TIME I WAS A FOOL )
                              As recorded by Foghat
                       (From the 1979 Album BOOGIE MOTEL)

Words and Music by Lonesome Dave Peverett
Transcribed by Tone Jone's

           G                    C                    F                F(type 2)
      3 2 0 0 0 3          x 3 2 0 1 0          x x 3 2 1 1          x x 3 x x x

          G/D                 G5/D
      x x 0 0 0 x          x x 0 0 x x

Gtr I (E A D G B E) - 'Gtr.1 Distortion'
Gtr II (E A D G B E) - 'Gtr.2 Distortion'
Gtr III (E A D G B E) - 'Gtr.3 Electric Gtr (Clean) & Chorus'
Gtr IV (E A D G B E) - 'Gtr 4&5 Acoustic (Steel) 12 String'
Gtr V (E A D G B E) - '12 Stg Acoustic Gtr.'
Gtr VI (E A D G B E) - 'Gtr.6 Distortion '

 Intro
  Moderately Q=116
                     G                      C
 4/4
                     Gtrs IV, V
  W                  W                      W
                     |                      |
                     /                      /

  Gtr I
                                            ~~
  W                  Q.     E +Q    E.  S   H.               +E    E
|------------------|----------------------|--------------------------|
|------------------|-0------1-(1)---3s==5-|-5----------------(5)s==3-|
|------------------|----------------------|--------------------------|
|------------------|----------------------|--------------------------|
|------------------|----------------------|--------------------------|
|------------------|----------------------|--------------------------|
|
| Gtr II
|                                           ~~
| W                  Q.     E +Q    E.  S   W
|------------------|----------------------|--------------------------|
|------------------|-0------1-(1)---3s==5-|-5------------------------|
|------------------|----------------------|--------------------------|
|------------------|----------------------|--------------------------|
|------------------|----------------------|--------------------------|
|------------------|----------------------|--------------------------|
|
| Gtr III
| H    a E E a E E   E  E E E +E  E E E     E  E E a E  E  E  S  S E
|------------------|----------------------|--------------------------|
|------------------|----------------------|--------1---(1)-1---------|
|------0h2-0-------|------0---------------|------0-0h2-(0)-0---------|
|------------2p0---|----0-----------------|----2--------------2p=0---|
|----------------3-|-2--------------0-2---|-3----------------------3-|
|------------------|--------3-(3)-3-------|--------------------------|


  G                      C                        G
  W                      W                         W
  |                      |                         |
  /                      /                         /

                         ~~                        ~~~
  Q.     E +Q    Q       H.                 Q      Q.      E  +E   E  E  E
|----------------------|------------------------|----------------------------|
|-0------1-(1)---3s====|=8----------------------|-12------13-(13)s12-15s17---|
|----------------------|------------------------|----------------------------|
|----------------------|------------------------|----------------------------|
|----------------------|------------------------|----------------------------|
|----------------------|------------------------|----------------------------|
|
| Q.     E +Q    E.  S   W                         Q.      E  +Q      E +E
|----------------------|------------------------|----------------------------|
|-0------1-(1)---3s==5-|------------------------|--0-------1--(1)-----3-(3)S=|
|----------------------|-0----------------------|----------------------------|
|----------------------|------------------------|----------------------------|
|----------------------|------------------------|----------------------------|
|----------------------|------------------------|----------------------------|
|
| E  E E E +E  E E E     E  E E a E  E  E a E E    E  E E  E  +E   E  E  E
|----------------------|------------------------|----------------------------|
|----------------------|--------1---(1)---------|----------------------------|
|------0---------------|------0-0h2-(0)-0-------|-------0--------------------|
|----0-----------------|----2-------------2p0---|-----0----------------------|
|-2--------------0-2---|-3--------------------3-|--2------------------0--2---|
|--------3-(3)-0-------|------------------------|----------3--(3)--3---------|


  C                             G
   W                             Q        E  E +E   E  E E
   |                             |        |  |  |   |  | |
   /                             /        /  /  /   /  / /

   ~~~
   H.                +E     E    E   +E   E  E  E   E  Q
|-----------------------------|----------------------------|
|-17----------------(17)s==15-|-12--(12)s13-13-13s=12-15---|
|-----------------------------|----------------------------|
|-----------------------------|----------------------------|
|-----------------------------|----------------------------|
|-----------------------------|----------------------------|
|
|  H.                +E     E    Q.          E +Q      E E
|-----------------------------|----------------------------|
|--5-----------------(5)s===3-|--0-----------1-(1)-----3---|
|-----------------------------|----------------------------|
|-----------------------------|----------------------------|
|-----------------------------|----------------------------|
|-----------------------------|----------------------------|
|
|  E  E E a E  E  E   S  S  E    E    E   E  E +E   E  E E
|-----------------------------|----------------------------|
|---------1---(1)-------------|----------------------------|
|---------0-2-(0)-0-----------|-----------0----------------|
|-----2---------------2p=0----|-------0--------------------|
|--3----3-------------------3-|--2---------------------0-2-|
|-----------------------------|--------------3-(3)--0------|


  G
    W                   W
    |                   |
    /                   /

   +H      +H           W
|--------------------|-------------------||
|-(15)----(15)\------|-------------------||
|--------------------|-------------------||
|--------------------|-------------------||
|--------------------|-------------------||
|--------------------|-------------------||
|
|   W                   H     +Q.   +E
|--------------------|-------------------||
|--------------------|-------------------||
|---0----------------|-------------------||
|--------------------|-------------------||
|--------------------|--3-----(3)---(3)\-||
|--------------------|-------------------||
|
|   H      +Q.     E   +W
|--------------------|-------------------||
|---1------(1)----!1-|-(1)---------------||
|---0------(0)----!0-|-(0)---------------||
|---2------(2)----!2-|-(2)---------------||
|---3------(3)----!3-|-(3)---------------||
|--------------------|-------------------||


 Verse
  F       G         C                    F       G
  Gtrs IV, V
  E E E E E E E E    E E  Q   Q    E E   E E E E E E E E
|-1-----------3---|--------------------|-----1-------3---|
|---------------3-|--------------------|-------1-------3-|
|---2-------4-----|----9-10---9--------|-2-2-----4-4-----|
|-----3---5-------|-10------------10p9-|-3-------5-------|
|-------3---------|--------------------|-----------------|
|-----------------|--------------------|-----------------|
|
| Gtr III
| H       H          Q    E E E E  E E   Q   Q   Q   Q
|-----------------|--0--------0-0--0---|-----------------|
|-1-------0-------|--1--------1-1--1-0-|-1---1---0---0---|
|-2-------0-------|--0--------0-0--0-0-|-2---2---0---0---|
|-3-------0-------|--2----3-3-2-2--2-0-|-3---3---0---0---|
|-3-------2-------|--3--------3-3--3---|-3---3---2---2---|
|---------3-------|--------------------|---------3---3---|


  C                       F       G         C
   E  E  E  E  H          E E E E E E E E   E E  E  E  E   E  Q
|-----------------------|-----1-------3---|-----------------------|
|-----------------------|-------1-------3-|-----------------------|
|-----9-10-10--9--------|-2-2-------4-----|---9--------7----------|
|-10----------10--------|-3-------5-------|-----10--------10------|
|-----------------------|-----------------|--------10--------10---|
|-----------------------|-----------------|-----------------------|
|
|  Q.       E +E  E E E   Q   Q   Q   Q     E E  E  E +E   E  E E
|-----------------------|-----------------|-----------------------|
|--1--------1-(1)-3-1-0-|-1---1---0---0---|-1-1--1--1-(1)--1--1-0-|
|--0--------0-(0)-0-0-0-|-2---2---0---0---|-0-0--0--0-(0)--0--0-0-|
|--2--------2-(2)-2-2-0-|-3---3---0---0---|-2-2--2--2-(2)--2--2-0-|
|--3--------3-(3)-3-3---|-3---3---2---2---|-3-3--3--3-(3)--3--3---|
|-----------------------|---------3---3---|-----------------------|


  F                   G
  E E E E +E  E E E   E E E E   +E  E E E     E E E E  Q    E E
|-------1-(1)-------|-------3---(3)-----3-|-------3-------------|
|-----1-------1-----|-----3---------3-----|-----3---3-----------|
|---2---------2-2s4-|---4-------------4---|---5--------4----4---|
|-3-------------3s5-|-5-------------------|-----------------5---|
|-------------------|---------------------|---------------------|
|-------------------|---------------------|---------------------|
|
| E E E E +E  E E E   Q   E E a  E  Q   E   a E E E E +E  E E E
|-------------------|---------------------|---------------------|
|-1-1-1-1-(1)-1-1-0-|-0---0-0-------------|---------------0-0-0-|
|-2-2-2-2-(2)-2-2-0-|-0---0-0-------0-----|---------0-(0)-0-0-0-|
|-3-3-3-3-(3)-3-3-0-|-0---0-0-0h=2------0-|-0h2-0---0-(0)-0-0-0-|
|-3-3-3-3-(3)-3-3---|-2---2-2-------------|-------2-------------|
|-------------------|-3---3-3-------------|---------------------|


  F       G        C                    F       G
  Q   E E Q  E E    E E E E  Q    E E   E E E E Q  E E
|-----1------3---|------8-------------|-----1------3---|
|-------1-3----3-|--------8-------8---|----------------|
|-2-------4------|----9-----10--------|-2-----0-4------|
|----------------|-10-----------------|---3-----5------|
|----------------|--------------------|----------------|
|----------------|--------------------|----------------|
|
| E E E E Q  E E    Q   E E +E  E E E   Q   E E Q  E E
|----------------|--------------------|----------------|
|-------1-0--0---|--1---1-1-(1)-1-1-0-|-1---1---0--0-0-|
|-2---2---0--0-0-|--0---0-0-(0)-0-0-0-|-2---2-0-0--0-0-|
|-3-3-----0--0---|--2---2-2-(2)-2-2-0-|-3---3---0--0-0-|
|-3-------2--2---|--3---3-3-(3)-3-3---|-3---3---2--2---|
|---------3--3---|--------------------|---------3--3---|


  G                      F       G         C
   E E  E  E  Q.     E   E E E E E E E E    E E  E  E  E   Q   E
|----------------------|-----1-----------|-----------------------|
|----------------------|-------1---------|-----------------------|
|--9-9-10-10-----------|---2-------4-4---|--9-9-10-10--9---------|
|-10---------10--------|-3-------5-5-5---|-10-------------10-----|
|----------------------|-----------------|-----------------------|
|----------------------|-----------------|-----------------------|
|
|  Q    E  E +E  E E E   Q   Q   Q   Q      Q    E  E +E   E E E
|----------0-(0)-------|-----------------|-----------------------|
|----------1-(1)-1-1-0-|-1---1---0---0---|--1----1--1-(1)--1-1-0-|
|--0----0--0-(0)-0-0-0-|-2---2---0---0---|--0----0--0-(0)--0-0-0-|
|--2----2--------2-2-0-|-3---3---0---0---|--2----2--2-(2)--2-2-0-|
|--3----3--------------|-3---3---2---2---|--3----3--3-(3)--3-3---|
|----------------------|---------3---3---|-----------------------|


  F                   G
  E E E E  E  E E E   E E E E   +E  E E E
|-----1-----------1-|-------3---(3)-------|
|-------1-------1---|-----3---------------|
|---2---------2-----|---4-------------4---|
|-3--------3--------|-5-------------5---5-|
|-------------------|---------------------|
|-------------------|---------------------|
|
| Q   E E +E  E E E   H       a  E  E E E
|-------------------|---------------------|
|-1---1-1-(1)-1-1-1-|-0-----------------0-|
|-2---2-2-(2)-2-2-2-|-0-------------0---0-|
|-3---3-3-(3)-3-3-3-|-0-------0-----0-2---|
|-3---3-3-(3)-3-3-3-|-2-------0h=2--------|
|-------------------|-3-------------------|


                        Chorus
                      $  $$
                         C
   E    E E E E E E E    E  E E E  E  E E E
|---------3-------3---||-0--0---0--0--0---0-|
|-------3---3---3-----||-1--1---1--1--1---1-|
|--5----------4-------||-0--0---0--0--0---0-|
|---------------------||-2--2---2--2--2---2-|
|---------------------||-3--3---3--3--3---3-|
|---------------------||--------------------|
|
| +E  a E E E E E E E    Q.     E +E  E E E
|---------------------||--------------------|
|-(0)-0---------------||-1------1-(1)-1-1-1-|
|-(0)-0h2-0---0---0---||-0------0-(0)-0-0-0-|
|-----------2---2-0---||-2------2-(2)-2-2-2-|
|-------------------0-||-3------3-(3)-3-3-3-|
|---------------------||--------------------|


  F                    C                    G
  E  E E E  E  E E E   E  E E E  E  E E E   E  E E E  E  E E E
|-1--1---1--1--1---0-|-0--0---0--0--0---3-|-3--3---3--3--3---0-|
|-1--1---1--1--1---0-|-1--1---1--1--1---0-|-0--0---0--0--0---0-|
|-2--2---2--2--2---0-|-0--0---0--0--0---0-|-0--0---0--0--0---0-|
|-3--3---3--3--3-----|-2--2---2--2--2---0-|-0--0---0--0--0-----|
|--------------------|-3--3---3--3--3-----|-2--2---2--2--2-----|
|--------------------|-3--3---3--3--3-----|-3--3---3--3--3-----|
|
| Q.     E +E  E E E   Q.     E +E  E E E   Q.     E +E  E E E
|--------------------|--------------------|--------------------|
|-1------1-(1)-1-1-0-|-1------1-(1)-1-1-0-|-0------0-(0)-0-0-0-|
|-2------2-(2)-2-2-0-|-0------0-(0)-0-0-0-|-0------0-(0)-0-0-0-|
|-3------3-(3)-3-3-0-|-2------2-(2)-2-2-0-|-0------0-(0)-0-0-0-|
|--------------------|-3------3-(3)-3-3---|-2------2-(2)-2-2---|
|--------------------|--------------------|-3------3-(3)-3-3---|


                                To Dbl. Cod
  C                    G
  E  E E E  E  E E E   E  E E E +E  Q   E
|-0--0---0--0--0---0-|-3--3---3-(3)-3---0-|
|-1--1---1--1--1---0-|-0--0---0-(0)-0---0-|
|-0--0---0--0--0---0-|-0--0---0-(0)-0---0-|
|-2--2---2--2--2-----|-0--0---0-(0)-0-----|
|-3--3---3--3--3-----|-2--2---2-(2)-2-----|
|--------------------|-3--3---3-(3)-3-----|
|
| Q.     E +E  E E E   Q.     E +E  E E E
|--------------------|--------------------|
|-1------1-(1)-1-1-0-|-0------0-(0)-0-0-0-|
|-0------0-(0)-0-0-0-|-0------0-(0)-0-0-0-|
|-2------2-(2)-2-2-0-|-0------0-(0)-0-0-0-|
|-3------3-(3)-3-3---|-2------2-(2)-2-2---|
|--------------------|-3------3-(3)-3-3---|


 a
  C
  Q   E E +E  E E E   H         H
|-0---0-3-(3)-0---0-|----------------------||
|-1---1---------3---|-1--------------------||
|-0---0-------------|----------------------||
|-2-----------------|----------------------||
|-3-----------------|----------------------||
|-------------------|----------------------||
|
| Q.    E +E  E E E   Q  E a E +E  E S S E
|-------------------|----------------------||
|-1-----1-(1)-1-1-1-|-1--------------------||
|-0-----0-(0)-0-0-0-|-0--0-0h2-(2)-0-------||
|-2-----2-(2)-2-2-2-|-2--------------2p0---||
|-3-----3-(3)-3-3-3-|-3------------------3-||
|-------------------|----------------------||


 Interlude
  G                      C
  Gtrs IV, V
  Q.     E +E  E E E     Q    E   E +E  E  E    E
  |      |  |  | | |     |    |   |  |  |  |    |
  /      /  /  / / /     /    /   /  /  /  /    /

  Gtr I
                         ~~
  Q.     E +Q    E E     H.               +E    E
|----------------------|--------------------------|
|-0------1-(1)---3s5---|-5----------------(5)s==3-|
|----------------------|--------------------------|
|----------------------|--------------------------|
|----------------------|--------------------------|
|----------------------|--------------------------|
|
| Gtr II
|                        ~~
| Q.     E +Q    E.  S   W
|----------------------|--------------------------|
|-0------1-(1)---3s==5-|-5------------------------|
|----------------------|--------------------------|
|----------------------|--------------------------|
|----------------------|--------------------------|
|----------------------|--------------------------|
|
| Gtr III
| E  E E E +E  E E E     E  E E a E  E  E  S  S E
|----------------------|--------------------------|
|----------------------|--------1---(1)-1---------|
|------0---------------|------0-0h2-(0)-0---------|
|----0-----------------|----2--------------2p=0---|
|-2--------------0-2---|-3----------------------3-|
|--------3-(3)-3-------|--------------------------|


  G                      C
  Q.     E +E  E E E     Q.       E +E  E    E   E
  |      |  |  | | |     |        |  |  |    |   |
  /      /  /  / / /     /        /  /  /    /   /

                         ~~~~~~~~~~~~~~~
  Q.     E +Q    Q       H          +Q      +E   E
|----------------------|---------------------------|
|-0------1-(1)---3s====|=8----------(8)-----(8)\---|
|----------------------|---------------------------|
|----------------------|---------------------------|
|----------------------|---------------------------|
|----------------------|---------------------------|
|
| Q.     E +Q    E.  S   W
|----------------------|---------------------------|
|-0------1-(1)---3s==5-|---------------------------|
|----------------------|-0-------------------------|
|----------------------|---------------------------|
|----------------------|---------------------------|
|----------------------|---------------------------|
|
| E  E E E +E  E E E     E  E E a E  E  E a  E   E
|----------------------|---------------------------|
|----------------------|--------1---(1)------------|
|------0---------------|------0-0h2-(0)-0----------|
|----0-----------------|----2-------------2p=0-----|
|-2--------------0-2---|-3-----------------------3-|
|--------3-(3)-0-------|---------------------------|


  G                    C
  Gtrs IV, V
  Q.     E +E  E E E   Q.       E +E  E  E    E
  |      |  |  | | |   |        |  |  |  |    |
  /      /  /  / / /   /        /  /  /  /    /

  Gtr I
                       ~~
  Q.     E +Q    E E   H.               +E    E
|--------------------|----------------------------|
|-0------1-(1)---3s5-|-5----------------(5)s==3---|
|--------------------|----------------------------|
|--------------------|----------------------------|
|--------------------|----------------------------|
|--------------------|----------------------------|
|
| Gtr II
|                      ~~
| Q.     E +Q    E E   W
|--------------------|----------------------------|
|-0------1-(1)---3s5-|-5--------------------------|
|--------------------|----------------------------|
|--------------------|----------------------------|
|--------------------|----------------------------|
|--------------------|----------------------------|
|
| Gtr III
| E  E E E +E  E E E   E  E E a E  E  E  S  S E
|--------------------|----------------------------|
|--------------------|--------1---(1)-1-----------|
|------0-------------|----0---0h2-(2)-0-----------|
|----0---------------|----2-2------------2p=0-----|
|-2--------------0-2-|-3----------------------3---|
|--------3-(3)-3-----|----------------------------|


  G                    C    G
  Q.     E +E  E E E   H    H
  |      |  |  | | |   |    |
  /      /  /  / / /   /    /

                       ~
  Q.     E +Q    Q     H    Q  +Q
|--------------------|---------------||
|-0------1-(1)---3---|-8----3--(3)s==||
|--------------------|---------------||
|--------------------|---------------||
|--------------------|---------------||
|--------------------|---------------||
|
| Q.     E +Q    Q     H    H
|--------------------|---------------||
|-0------1-(1)---3---|-1-------------||
|--------------------|------0--------||
|--------------------|---------------||
|--------------------|---------------||
|--------------------|---------------||
|
| E  E E E +E  E E E   H    H
|--------------------|---------------||
|--------------------|-1----0--------||
|------0-------------|-0----0--------||
|----0---------------|-2----0--------||
|-2--------------0-0-|-3----2--------||
|--------3-(3)-x-----|------3--------||


 Verse
  F       F         C                       F       G
  Gtr I
   H      H         W                       W
|-----------------|---------------------|--------------------|
|-13--------------|---------------------|--------------------|
|-----------------|---------------------|--------------------|
|-----------------|---------------------|--------------------|
|-----------------|---------------------|--------------------|
|-----------------|---------------------|--------------------|
|
| Gtrs IV, V
|  Q  E E E E E E   E E  E  E  E  E E E   a E E E E E E E E
|-----1-------3---|---------------------|-------1-------3----|
|-------1-------3-|---------------------|--------------------|
|--2--------4-----|---9-------10----9---|-0h2-2---0-4-4------|
|--3------5-------|-----10-------10-----|-----------5--------|
|-----------------|--------10-----------|--------------------|
|-----------------|---------------------|--------------------|
|
| Gtr III
|  H      H         Q    E  E  E  E E E     Q   Q   Q   Q
|-----------------|-0----------0--0-0---|--------------------|
|--1------0-------|-1----------1--1-1-0-|---1---1---0---0----|
|--2------0-------|-0----------0--0-0-0-|---2---2---0---0----|
|--3------0-------|-2----3--3--2--2-2-0-|---3---3---0---0----|
|--3------2-------|-3----------3--3-3---|---3---3---2---2----|
|---------3-------|---------------------|-----------3---3----|


  C                       F      G        C
  Gtrs IV, V
   E  E  E  E  Q.     E   Q  E E E E Q    E E  E  E  E   E E E
|-----------------------|----1-------3--|----------------------|
|-----------------------|----------3----|----------------------|
|--9--9-10-----9--------|-2----0-4------|---9-------10-----9---|
|-10-------10-----------|---------------|-----10--------10-----|
|-----------------------|---------------|--------10------------|
|-----------------------|---------------|----------------------|
|
| Gtr III
|  Q.       E +E  E E E   Q  Q   Q   Q    E E  E  E +E   E E E
|-----------------------|---------------|----------------------|
|--1--------1-(1)-3-1-0-|-1--1---0---0--|-1-1--1--1-(1)--1-1-0-|
|--0--------0-(0)-0-0-0-|-2--2---0---0--|-0-0--0--0-(0)--0-0-0-|
|--2--------2-(2)-2-2-0-|-3--3---0---0--|-2-2--2--2-(2)--2-2-0-|
|--3--------3-(3)-3-3---|-3--3---2---2--|-3-3--3--3-(3)--3-3---|
|-----------------------|--------3---3--|----------------------|


  F                   G
  Q   E E  E  E E E   E E E E   E E E E     E E E E  E  E E E
|-----1---------1---|-----3---------3---|-------3---------3---|
|-------1-----------|---3---3---------3-|-----3---3-----3-----|
|-2--------2--2-----|-4---------4-4-----|---5--------4--------|
|-------------------|-------------------|---------------------|
|-------------------|-------------------|---------------------|
|-------------------|-------------------|---------------------|
|
| E E E E +E  E E E   Q   E E a E Q   E   a E E E E +E  E E E
|-------------------|-------------------|---------------------|
|-1-1-1-1-(1)-1-1-0-|-0---0-0-----------|---------------0-0-0-|
|-2-2-2-2-(2)-2-2-0-|-0---0-0-----0-----|---------0-(0)-0-0-0-|
|-3-3-3-3-(3)-3-3-0-|-0---0-0-0h2-----0-|-0h2-0---0-(0)-0-0-0-|
|-3-3-3-3-(3)-3-3---|-2---2-2-----------|-------2-------------|
|-------------------|-3---3-3-----------|---------------------|


  F       G         C                        F       G
  E E E E E E E E   E  E  E  E  E   E E  E   E E E E E E E E
|-----1-------3---|------------------------|-----1-------3---|
|---1---1---3-----|------------------------|---1---1---3---3-|
|-2-------4-------|-9----------10-----9----|-2-------4-------|
|-----------------|------10--------10---10-|-----------------|
|-----------------|---10----10-------------|-----------------|
|-----------------|------------------------|-----------------|
|
| E E E E Q   E E   Q     E  E +E   E E  E   Q   E E Q   E E
|-----------------|------------------------|-----------------|
|-------1-0---0---|-1-----1--1-(1)--1-1--0-|-1---1---0---0-0-|
|-2---2---0---0-0-|-0-----0--0-(0)--0-0--0-|-2---2-0-0---0-0-|
|-3-3-----0---0---|-2-----2--2-(2)--2-2--0-|-3---3---0---0-0-|
|-3-------2---2---|-3-----3--3-(3)--3-3----|-3---3---2---2---|
|---------3---3---|------------------------|---------3---3---|


  G                     F      G         C
  E  Q    E  Q.     E   Q  E E E E E E   E  E  E  E  E   E E E
|---------------------|----1-------3---|-----------------------|
|---------------------|------1---3---3-|-----------------------|
|------------9--------|-2------4-------|-9----------10-----9---|
|--------10-----------|----------------|------10--------10-----|
|---10----------------|----------------|---10----10------------|
|---------------------|----------------|-----------------------|
|
| Q    E  E +E  E E E   Q  Q   Q   Q     Q     E  E +E   E E E
|---------0-(0)-------|----------------|-----------------------|
|---------1-(1)-1-1-0-|-1--1---0---0---|-1-----1--1-(1)--1-1-0-|
|-0----0--0-(0)-0-0-0-|-2--2---0---0---|-0-----0--0-(0)--0-0-0-|
|-2----2--------2-2-0-|-3--3---0---0---|-2-----2--2-(2)--2-2-0-|
|-3----3--------------|-3--3---2---2---|-3-----3--3-(3)--3-3---|
|---------------------|--------3---3---|-----------------------|


                                               D.S. al Coda
  F                  G
  Q  E E  Q    E E   E E E E   E E E E    E    E E E E E E E
|----1---------1---|-----3---------3---|---------3-------3---||
|------1---------1-|---3---3-----3---3-|-------3---3---3-----||
|-2-------2--------|-4---------4-------|--5----------4-------||
|------------------|-------------------|---------------------||
|------------------|-------------------|---------------------||
|------------------|-------------------|---------------------||
|
| Q  E E +E  E E E   H       a E E E E   +E  a E E E E E E E
|------------------|-------------------|---------------------||
|-1--1-1-(1)-1-1-1-|-0---------------0-|-(0)-0---------------||
|-2--2-2-(2)-2-2-2-|-0-----------0---0-|-(0)-0h2-0---0---0---||
|-3--3-3-(3)-3-3-3-|-0-------0---0-2---|-----------2---2-0---||
|-3--3-3-(3)-3-3-3-|-2-------0h2-------|-------------------0-||
|------------------|-3-----------------|---------------------||


  &
  C                      F           G
  Gtrs III, IV, V
   Q     E  E +E E E E    E  E  E     E  +H
   |     |  |  | | | |    |  |  |     |   |
   /     /  /  / / / /    /  /  /     /   /

  Gtrs I, II
               ~~                     ~~~~~~~
   E  E  E  E  H          E  E  E     E  +H
|-12s10s12s10----------|-12s10-------15-(15)-------||
|-13s12s13s12-13-------|-13s12-13-15-17-(17)-------||
|-------------12-------|-------12------------------||
|----------------------|---------------------------||
|----------------------|---------------------------||
|----------------------|---------------------------||
|  E  E  E  E  H          E  E  E  a  E  +H
|
| Gtr VI
|  W                      H               E  E E E
|----------------------|---------------------------||
|----------------------|---------------------5-6-8-||
|----------------------|---------------------------||
|----------------------|---------------------------||
|----------------------|---------------------------||
|----------------------|---------------------------||
|
| Gtr I
|  W                      H               E  E E E
|----------------------|---------------------------||
|----------------------|---------------------------||
|----------------------|---------------------5-7-9-||
|----------------------|---------------------------||
|----------------------|---------------------------||
|----------------------|---------------------------||


 Guitar Solo
  F             F
  Gtr III
     H           H
     |           |
     /           /

  Gtr I
  a  Q.      E   Q     +Q
|--------------------------------|
|-8s10------10s=12----(12)\------|
|--------------------------------|
|--------------------------------|
|--------------------------------|
|--------------------------------|
|
| Gtr II
| a  Q.     +E   Q.          +E
|--------------------------------|
|--------------------------------|
|-9s10-----(10)s12----------(12)S|
|--------------------------------|
|--------------------------------|
|--------------------------------|
|
| Gtrs IV, V
|    Q   E   E   E  E   E     E
|--------1--------------3--------|
|------------1----------------3--|
|----2--------------4------------|
|----3-----------5---------------|
|--------------------------------|
|--------------------------------|


  C   F(typeC2)      G/D   F           G
  Q    E  E  E   E E E      Q   Q       Q   Q
  |    |  |  |   | | |      |   |       |   |
  /    /  /  /   / / /      /   /       /   /

  ~~~~~~~~~~~~~~            ~~          ~~
  H         +E   E E E   a  H        a  H
|----------------------|------------------------|
|-8---------(8)--5-6-8-|-8s10-------10s12-------|
|----------------------|------------------------|
|----------------------|------------------------|
|----------------------|------------------------|
|----------------------|------------------------|
|
| ~~~~~~~~~~~~~~            ~~~~~~~~~~~~~~
| H         +E   E E E      H           H
|----------------------|------------------------|
|----------------------|------------------------|
|-9---------(9)--5-7-9-|---10----------12-------|
|----------------------|------------------------|
|----------------------|------------------------|
|----------------------|------------------------|
|
| E E  E  E  E   E E E   a  E E E E     E E E E
|----------------------|--------1-----------3---|
|----------------------|------------------------|
|---9-------10-----9---|-0h=2-2---0-----4-4-----|
|-----10--------10-----|----------------5-------|
|--------10------------|------------------------|
|----------------------|------------------------|


  C                      G/D
   Q.       E  +E   E  E  E
   |        |   |   |  |  |
   /        /   /   /  /  /

   ~~~~~~~~~~~~~~~~
   H           +E   E  E  E
|---------------------------|
|-17----------(17)-17-17-17-|
|---------------------------|
|---------------------------|
|---------------------------|
|---------------------------|
|
|  ~~~
|  H            E   E  E  E
|---------------------------|
|-13---------------13-13-13-|
|---------------------------|
|---------------------------|
|---------------------------|
|---------------------------|
|
| Gtrs IV, V
|  E  E  E  E   Q.        E
|---------------------------|
|---------------------------|
|--9--9-10------9-----------|
|-10-------10---------------|
|---------------------------|
|---------------------------|


  F           G             C                     G/D
   Q     Q     Q     Q       E  E  E  E  +E   E E E
   |     |     |     |       |  |  |  |   |   | | |
   /     /     /     /       /  /  /  /   /   / / /

                                      ~~~~~~~
   E  E  E  E  E  E  E  E    E  Q     E  +H
|-------------------------|-------------------------|
|-17s15-15s13-13s12-12----|-12-13-------------------|
|----------------------12-|----------12-(12)--------|
|-------------------------|-------------------------|
|-------------------------|-------------------------|
|-------------------------|-------------------------|
|
|                                     ~~~~~~~
|  E  E  E  E  E  E  E  E    E  Q     E  +H
|-------------------------|-------------------------|
|-13s12-12s10-10s=8--8----|--8-10-------------------|
|-----------------------9-|-----------9--(9)--------|
|-------------------------|-------------------------|
|-------------------------|-------------------------|
|-------------------------|-------------------------|
|
|  Q     E  E  E  E  Q       E  E  E  E   E   E E E
|--------1-----------3----|-------------------------|
|-----------------3-------|-------------------------|
|--2--------0--4----------|-----9--------10-----9---|
|-------------------------|-------10---------10-----|
|-------------------------|----------10-------------|
|-------------------------|-------------------------|


  F                   G/D  G
  E  E  E  E +E  E  E  E    Q    E   E    E  E  E E
  |  |  |  |  |  |  |  |    |    |   |    |  |  | |
  /  /  /  /  /  /  /  /    /    /   /    o  o  o o

                            ~~~
  E  E  E  E  E  E  E  E    Q.      +E    E  E  E E
|------------------------|--------------------------|
|---17-17s15-15s13-13s12-|-12------(12)/-15s13-12---|
|------------------------|--------------------------|
|------------------------|--------------------------|
|------------------------|--------------------------|
|------------------------|--------------------------|
|
|                           ~~~
| E  E  E  E  E  E  E  E    Q.       E    E  E  E E
|------------------------|--------------------------|
|---13-13s12-12s10-10s=8-|--8------------12s10--8---|
|------------------------|--------------------------|
|------------------------|--------------------------|
|------------------------|--------------------------|
|------------------------|--------------------------|
|
| Q     E  E  E  E  E  E    E  E E   E    E  E  E E
|-------1-----------1----|-------3--------------3---|
|----------1-------------|-----3-----3------------3-|
|-2-----------2--2-------|--4-------------4--4------|
|------------------------|--------------------------|
|------------------------|--------------------------|
|------------------------|--------------------------|


                 G5/D    G/D
   E  E  E     E   E  +E E E
   |  |  |     |   |   | | |
   o  o  o     o   /   / / /

               ~~~~~~~
   E  E  E  a  E  +H
|-15s13----17s19-(19)---------|
|-------15--------------------|
|-----------------------------|
|-----------------------------|
|-----------------------------|
|-----------------------------|
|
|              ~~~~~~~
|  E  E  E     E  +H
|-------------15-(15)---------|
|-15s13-12--------------------|
|-----------------------------|
|-----------------------------|
|-----------------------------|
|-----------------------------|
|
|  E  E  E     E   E   E E E
|--------3---------------3----|
|-----3--------3-------3------|
|--5---------------4----------|
|-----------------------------|
|-----------------------------|
|-----------------------------|


  C                           F
  Gtr VI
                               ~~~               ~~
  Q     E  +E   E   E  E  E    Q.      E  E   E  Q
|---------------------------|------------------------|
|------17-(17)s15--15-15s13-|-13------13-13s=15s13---|
|---------------------------|------------------------|
|---------------------------|------------------------|
|---------------------------|------------------------|
|---------------------------|------------------------|
|
| Gtrs IV, V
| E  E  E   E   E   E  E  E    E  E E  E  E   E  E E
|-0--0------0---0---0-----0-|--1--1----1--1---1----0-|
|-1--1------1---1---1-----1-|--1--1----1--1---1----0-|
|-0--0------0---0---0-----0-|--2--2----2--2---2----0-|
|-2--2------2---2---2-----2-|--3--3----3--3---3------|
|-3--3------3---3---3-----3-|------------------------|
|---------------------------|------------------------|
|
| Gtr III
| Q.        E  +E   E  E  E    Q.      E +E   E  E E
|---------------------------|------------------------|
|-1---------1--(1)--1--1--1-|--1-------1-(1)--1--1-0-|
|-0---------0--(0)--0--0--0-|--2-------2-(2)--2--2-0-|
|-2---------2--(2)--2--2--2-|--3-------3-(3)--3--3-0-|
|-3---------3--(3)--3--3--3-|------------------------|
|---------------------------|------------------------|


  C                           G
                               ~~~                  ~~
  Q     E  +E   E   E  E  E    Q.      E  E   E  E  E
|---------------------------|-------------------------|
|------17-(17)s15--15-15s13-|-12------12-13s=12-------|
|---------------------------|-------------------14-12-|
|---------------------------|-------------------------|
|---------------------------|-------------------------|
|---------------------------|-------------------------|
|
| E  E  E   E   E   E  E  E    E  E E  E  E   E  E  E
|-0--0------0---0---0-----3-|--3--3----3--3---3-----0-|
|-1--1------1---1---1-----0-|--0--0----0--0---0-----0-|
|-0--0------0---0---0-----0-|--0--0----0--0---0-----0-|
|-2--2------2---2---2-----0-|--0--0----0--0---0-------|
|-3--3------3---3---3-------|--2--2----2--2---2-------|
|-3--3------3---3---3-------|--3--3----3--3---3-------|
|
| Q.        E  +E   E  E  E    Q.      E +E   E  E  E
|---------------------------|-------------------------|
|-1---------1--(1)--1--1--0-|--0-------0-(0)--0--0--0-|
|-0---------0--(0)--0--0--0-|--0-------0-(0)--0--0--0-|
|-2---------2--(2)--2--2--0-|--0-------0-(0)--0--0--0-|
|-3---------3--(3)--3--3----|--2-------2-(2)--2--2----|
|---------------------------|--3-------3-(3)--3--3----|


  C                                   G
  Gtr I
    ~~~~                               ~~~                   ~~~
    Q    E  +E    E   E   E  +S   S    Q.    S  S  E   E  E  E
|-----------------------------------|--------------------------|
|-------17-(17)s=15--15--15-(15)s17-|-12----12s13-13--12-------|
|--12-------------------------------|--------------------14-12-|
|-----------------------------------|--------------------------|
|-----------------------------------|--------------------------|
|-----------------------------------|--------------------------|
|
| Gtr VI
|   ~~~~~~~~~~~~~~~~~~~~~                                    ~~~
|  +Q    Q       +E   Q.               Q.    E     E   E  E  E
|-----------------------------------|--------------------------|
|-------17------(17)-15-------------|-12----12----13--12-------|
|-(12)------------------------------|--------------------14-12-|
|-----------------------------------|--------------------------|
|-----------------------------------|--------------------------|
|-----------------------------------|--------------------------|
|
| Gtr III
|   Q.       E   +E   E   E   E        Q.    E    +E   E  E  E
|-----------------------------------|--------------------------|
|---1--------1---(1)--1---1---0-----|--0-----0----(0)--0--0--0-|
|---0--------0---(0)--0---0---0-----|--0-----0----(0)--0--0--0-|
|---2--------2---(2)--2---2---0-----|--0-----0----(0)--0--0--0-|
|---3--------3---(3)--3---3---------|--2-----2----(2)--2--2----|
|-----------------------------------|--3-----3----(3)--3--3----|


  C
 ~~~~~~~~~~~~~~~                           ~~
   +H       +Q.     E    E  E  E    E  E   Q     E
|---------------------|----------------------------||
|---------------------|----------------------------||
|-(12)-----(12)-------|-14-12-14---12-14--12-------||
|---------------------|----------------------------||
|---------------------|----------------------------||
|---------------------|----------------------------||
|
|~~~~~~~~~~~~~~~                           ~~
|  +H       +Q.     E    E  E  E    E  E   Q     E
|---------------------|----------------------------||
|---------------------|----------------------------||
|-(12)-----(12)-------|-10s=9s10s===9s10s==9-------||
|---------------------|----------------------------||
|---------------------|----------------------------||
|---------------------|----------------------------||
|
|   Q.   E  +E  E E E    Q     E a  E +E   E S S E
|---------------------|----------------------------||
|---1----1--(1)-1-1-1-|--1-------------------------||
|---0----0--(0)-0-0-0-|--0-----0-0h=2-(2)--0-------||
|---2----2--(2)-2-2-2-|--2-------------------2p0---||
|---3----3--(3)-3-3-3-|--3-----------------------3-||
|---------------------|----------------------------||


 Interlude
  G                      C                       G
  Gtrs IV, V
  W                      W                       W
  |                      |                       |
  /                      /                       /

  Gtr I
                         ~
  Q.     E +Q    E.  S   W                       Q.     E +Q    Q
|----------------------|-----------------------|----------------------|
|-0------1-(1)---3s==5-|-5---------------------|-0------1-(1)---3s====|
|----------------------|-----------------------|----------------------|
|----------------------|-----------------------|----------------------|
|----------------------|-----------------------|----------------------|
|----------------------|-----------------------|----------------------|
|
| Gtr II
|                        ~
| Q.     E +Q    E.  S   W                       Q.     E +Q    E.  S
|----------------------|-----------------------|----------------------|
|-0------1-(1)---3s==5-|-5---------------------|-0------1-(1)---3s==5-|
|----------------------|-----------------------|----------------------|
|----------------------|-----------------------|----------------------|
|----------------------|-----------------------|----------------------|
|----------------------|-----------------------|----------------------|
|
| Gtr III
| E  E E E +E  E E E     E E E a E  E  E S S E   E  E E E +E  E E E
|----------------------|-----------------------|----------------------|
|----------------------|-------1---(1)-1-------|----------------------|
|------0---------------|-----0-0h2-(2)-0-------|------0---------------|
|----0-----------------|---2-------------2p0---|----0-----------------|
|-2--------------0-2---|-3-------------------3-|-2--------------0-2---|
|--------3-(3)-3-------|-----------------------|--------3-(3)-3-------|


  C                          G                    C
  W                          Q    E E  E  E E E   Q    E   E  E  E  E    E
  |                          |    | |  |  | | |   |    |   |  |  |  |    |
  /                          /    x /  /  / x /   /    x   /  /  /  x    /

  ~~~~~~~~~~~~~~                                  ~~
  H         +Q      +E   E   Q.     E +Q    E E   H.               +E    E
|--------------------------|--------------------|--------------------------|
|-8---------(8)-----(8)\---|-0------1-(1)---3s5-|-5----------------(5)s==3-|
|--------------------------|--------------------|--------------------------|
|--------------------------|--------------------|--------------------------|
|--------------------------|--------------------|--------------------------|
|--------------------------|--------------------|--------------------------|
|
|                                                 ~~~~~~~~~~~~~~~
| W                          Q.     E +Q    E E   H          +Q    +E    E
|--------------------------|--------------------|--------------------------|
|--------------------------|-0------1-(1)---3s5-|-5----------(5)---(5)s==3-|
|-0------------------------|--------------------|--------------------------|
|--------------------------|--------------------|--------------------------|
|--------------------------|--------------------|--------------------------|
|--------------------------|--------------------|--------------------------|
|
| E E E a E  E  E a  E   E   E  E E E +E  E E E   E  E E a E  E  E  S  S E
|--------------------------|--------------------|--------------------------|
|-------1---(1)------------|--------------------|--------1---(1)-1---------|
|-----0-0h2-(2)-0----------|------0-------------|------0-0h2-(2)-0---------|
|---2-------------2p=0-----|----0---------------|----2--------------2p=0---|
|-3----------------------3-|-2--------------0-2-|-3----------------------3-|
|--------------------------|--------3-(3)-3-----|--------------------------|


                                              D.S.S. al Dbl. Coda
  G                    C
  Q    E E  E  E E E   Q   E E   Q   E E      E E E E  E   E   E E
  |    | |  |  | | |   |   | |   |   | |      | | | |  |   |   | |
  /    x /  /  / x x   /   / /   /   / /      / / / /  /   /   / /

                       ~~          ~                ~~~~~~
  Q.     E +Q    Q     H       a E Q   E      E E E E +E  +Q     E
|--------------------|-------------------|-------------------------||
|-0------1-(1)---3---|-8-----------8---8-|---10-8---8-(8)-(8)\-----||
|--------------------|---------7s9-------|--------9----------------||
|--------------------|-------------------|-------------------------||
|--------------------|-------------------|-------------------------||
|--------------------|-------------------|-------------------------||
|
| Q.     E +Q    Q     Q.    E a E Q   E   a  E E E E +Q.        E
|--------------------|-------------------|-------------------------||
|-0------1-(1)---3---|-------------------|-------------------------||
|--------------------|-------------0---0-|-0h=2-0---0-(0)----------||
|--------------------|---------1s2-------|--------2----------------||
|--------------------|-3-----3-----------|-------------------------||
|--------------------|-------------------|-------------------------||
|
| E  E E E +E  E E E   W                      E E E E +E   E   E E
|--------------------|-------------------|-------------------------||
|--------------------|-------------------|------0-0-0-(0)--0---0---||
|------0-------------|-------------------|------0-0-0-(0)--0---0---||
|----0---------------|-------------------|------0-0-0-(0)--0---0---||
|-2--------------0-2-|-3-----------------|-----------------------0-||
|--------3-(3)-3-----|-------------------|-------------------------||


  &&
  C
  Gtrs IV, V
  E  E E E  E  E E E   E E E E  E  E E E
|-0--0-0-0--0--0-0-0-|-1-1-1-3--3--3-3-0-|
|-1--1-1-1--1--1-1-1-|-1-1-1-0--0--0-0-0-|
|-0--0-0-0--0--0-0-0-|-2-2-2-0--0--0-0-0-|
|-2--2-2-2--2--2-2-2-|-3-3-3-0--0--0-0-0-|
|-3--3-3-3--3--3-3-3-|-3-3-3-2--2--2-2---|
|--------------------|-1-1-1-3--3--3-3---|
|
| Gtr III
| Q.     E +E  E E E   E E E E +E  E E E
|--------0-(0)-------|-1-1-1-------------|
|-1------1-(1)-1-----|-1-1-1-0-(0)-0-0---|
|-0------0-(0)---0---|-2-2-2-0-(0)-0-0---|
|-2----------------3-|-3-3-3-0-(0)-0-0---|
|-3------------------|-------2-(2)-2-2-0-|
|--------------------|-------3-(3)-3-3---|


   Out-Chorus
    C                    F
    E  E E E  E  E E E   E  E E E  E  E E E
||--0--0---0--0--0---0-|-1--1---1--1--1---0-|
||o-1--1---1--1--1---1-|-1--1---1--1--1---0-|
||--0--0---0--0--0---0-|-2--2---2--2--2---0-|
||--2--2---2--2--2---2-|-3--3---3--3--3-----|
||o-3--3---3--3--3---3-|--------------------|
||---------------------|--------------------|
|
|   Q.     E +E  E E E   Q.     E +E  E E E
||---------------------|--------------------|
||o-1------1-(1)-1-1-1-|-1------1-(1)-1-1-0-|
||--0------0-(0)-0-0-0-|-2------2-(2)-2-2-0-|
||--2------2-(2)-2-2-2-|-3------3-(3)-3-3-0-|
||o-3------3-(3)-3-3-3-|--------------------|
||---------------------|--------------------|


  C                    G
  E  E E E  E  E E E   E  E E E  E  E E E
|-0--0---0--0--0---3-|-3--3---3--3--3---0-|
|-1--1---1--1--1---0-|-0--0---0--0--0---0-|
|-0--0---0--0--0---0-|-0--0---0--0--0---0-|
|-2--2---2--2--2---0-|-0--0---0--0--0-----|
|-3--3---3--3--3-----|-2--2---2--2--2-----|
|-3--3---3--3--3-----|-3--3---3--3--3-----|
|
| Q.     E +E  E E E   Q.     E +E  E E E
|--------------------|--------------------|
|-1------1-(1)-1-1-0-|-0------0-(0)-0-0-0-|
|-0------0-(0)-0-0-0-|-0------0-(0)-0-0-0-|
|-2------2-(2)-2-2-0-|-0------0-(0)-0-0-0-|
|-3------3-(3)-3-3---|-2------2-(2)-2-2---|
|--------------------|-3------3-(3)-3-3---|


  C                    G
  E  E E E  E  E E E   E  E E E +E  Q   E
|-0--0---0--0--0---0-|-3--3---3-(3)-3---0-|
|-1--1---1--1--1---0-|-0--0---0-(0)-0---0-|
|-0--0---0--0--0---0-|-0--0---0-(0)-0---0-|
|-2--2---2--2--2-----|-0--0---0-(0)-0-----|
|-3--3---3--3--3-----|-2--2---2-(2)-2-----|
|--------------------|-3--3---3-(3)-3-----|
|
| Q.     E +E  E E E   Q.     E +E  E E E
|--------------------|--------------------|
|-1------1-(1)-1-1-0-|-0------0-(0)-0-0-0-|
|-0------0-(0)-0-0-0-|-0------0-(0)-0-0-0-|
|-2------2-(2)-2-2-0-|-0------0-(0)-0-0-0-|
|-3------3-(3)-3-3---|-2------2-(2)-2-2---|
|--------------------|-3------3-(3)-3-3---|


  C           C       G/D F              G
  Gtr III
   Q     E  E  E E  E E    Q     Q         Q    Q
   |     |  |  | |  | |    |     |         |    |
   /     o  o  / /  / /    /     /         /    /

  Gtr I
               ~~                      ~~~~~~~
   E  E  E  E  H           E  E  E     E  +H
|-----------------------|-------------15-(15)--------||
|-17s15s17s15-13--------|-17s15-13------------------o||
|-----------------------|----------------------------||
|-----------------------|----------------------------||
|-----------------------|---------------------------o||
|-----------------------|----------------------------||
|
| Gtr II
|              ~~                      ~~~~~~~
|  E  E  E  E  H           E  E  E  a  E  +H
|-----------------------|----------------------------||
|-13s12s13s12-----------|-13s12----15s17-(17)-------o||
|-------------12--------|-------12-------------------||
|-----------------------|----------------------------||
|-----------------------|---------------------------o||
|-----------------------|----------------------------||
|
| Gtrs IV, V
|  E  E  Q     Q    E E    E  E  E     E   E  E E E
|-----------------------|--------1--------------3----||
|-----------------------|--------------1----------3-o||
|-----9-10-----9--------|--2--2------------4--4------||
|-10---------------10p9-|--3---------------5---------||
|-----------------------|---------------------------o||
|-----------------------|----------------------------||


  C                    F
  W                    W
  Gtrs IV, V
  E  E E E  E  E E E   E  E E E  E  E E E
|-0--0---0--0--0---0-|-1--1---1--1--1---0--*|
|-1--1---1--1--1---1-|-1--1---1--1--1---0--*|
|-0--0---0--0--0---0-|-2--2---2--2--2---0--*|
|-2--2---2--2--2---2-|-3--3---3--3--3------*|
|-3--3---3--3--3---3-|---------------------*|
|--------------------|---------------------*|
|
| Gtr III
| Q.     E +E  E E E   Q.     E +E  E E E
|--------------------|---------------------*|
|-1------1-(1)-1-1-1-|-1------1-(1)-1-1-0--*|
|-0------0-(0)-0-0-0-|-2------2-(2)-2-2-0--*|
|-2------2-(2)-2-2-2-|-3------3-(3)-3-3-0--*|
|-3------3-(3)-3-3-3-|---------------------*|
|--------------------|---------------------*|
|
| W                    W
|--------------------|---------------------*|
|--------------------|---------------------*|
|--------------------|---------------------*|
|--------------------|---------------------*|
|--------------------|---------------------*|
|--------------------|---------------------*|


Duration Legend
---------------
W - whole; H - half; Q - quarter; E - 8th; S - 16th; T - 32nd; X - 64th; a - acciaccatura
+ - note tied to previous; . - note dotted; .. - note double dotted
Uncapitalized letters represent notes that are staccato (1/2 duration)
Irregular groupings are notated above the duration line
Duration letters will always appear directly above the note/fret number it represents the
duration for.  Duration letters with no fret number below them represent rests.  Multi-
bar rests are notated in the form Wxn, where n is the number of bars to rest for.  Low
melody durations appear below the staff

Tablature Legend
----------------
 h   - hammer-on
 p   - pull-off
 b   - bend
 pb  - pre-bend
 r   - bend release (if no number after the r, then release immediately)
 /\  - slide into or out of (from/to "nowhere")
 s   - legato slide
 S   - shift slide
  - natural harmonic
[n]  - artificial harmonic
n(n) - tapped harmonic
 ~   - vibrato
 tr  - trill
 T   - tap
 TP  - trem. picking
 PM  - palm muting
\n/  - tremolo bar dip; n = amount to dip
 \n  - tremolo bar down
 n/  - tremolo bar up
/n\  - tremolo bar inverted dip
 =   - hold bend; also acts as connecting device for hammers/pulls
 <>  - volume swell (louder/softer)
 x   - on rhythm slash represents muted slash
 o   - on rhythm slash represents single note slash

Misc Legend
-----------
 |  - bar
||  - double bar
||o - repeat start
o|| - repeat end
*|  - double bar (ending)
 :  - bar (freetime)
 $  - Segno
 &  - Coda
Tempo markers -  = BPM(8/16=s8/s16), where s8 = swing 8ths, s16 = swing 16ths


***************************************************************************************
* Generated using Power Tab Editor by Brad Larsen - http://powertab.guitarnetwork.org *
***************************************************************************************

            
            
Suggest correction
Creating personal tab
Creating personal tab
You can edit any tab online and save it as your Personal.

You can edit, replace or remove any tab part or add personal notes – all changes will be seen only by you.

Personal tabs can be accessed anytime from any device, even offline.
Learn more »
Give kudos to tab author, rate the tab!
1 2 3 4 5
comments
print report bad tab
guest
You may want to rate the tab now too:
select rating
Wanna post a correction for this tab? Suggest correction