Oops, an error
Loading. Please wait.

Hemel Op Die Platteland Acoustic tab

version 3
version 3

Whole song

1,456 views 57 this week
1 commentread comment
1 2 3 4 5
x 3
add to favorites
×
Save as Personal and add changes to this tab that will be seen only by you. Learn more ›
×
You can save this tab as Personal to edit and correct it or add notes. All changes will be seen only by you. Learn more »
launch autoscroll
font size
0
reset
how to read this tab
guitar tuner
edit
Autoscroll
slow
fast
+/-
esc
set tempo
stop
Author
Difficulty
[Intro]

e|-------------------0--------|------------------0-------|------------------0-------| 
B|-------------1----------1--1|------------1----------1--|------------1----------1--|
G|----2----------2-------2--2-|----2---------2-------2---|----2---------2-------2---|
D|------2----------2----------|------2---------2---------|------2---------2---------|
A|--0-----0-------------------|--0-----0-----------------|--0-----0-----------------|
E|----------------------------|--------------------------|--------------------------|

Am F C G


[Verse 1]

Am                       C          G
Kan jy my skroewe vir my vasdraai? 
Am                  C      G
Kan jy my albasters vir my vind?
C 
Kan jy jou idee van normaal by jou gat opdruk? 
G    F             G
Kan jy, kan jy apatie spel?


Am  (B G E G B G)       C (B G)    G            (play the strings in brackets after strumming the chord)
Kan iemand dalk 'n God bel?
C
En vir hom sê ons het hom nie meer nodig nie 
G   F              G
Kan jy, kan jy apatie spel?


[Chorus]

     C                                               Am                    C           G
e|-------------0----------|-------------0----------|----------0-----------|------------------------| 
B|-------1-----------1----|-------1-----------1----|-------1-------1------|----------1-----------0-|
G|----------0-----------0-|----------0-----------0-|--------------------2-|-------0-----------0----|
D|----2-----------2-------|----2-----------2-------|----2-----------------|----2-----------0-------|
A|-3----------------------|-3----------------------|-0--------------------|-3-----------2----------|
E|------------------------|------------------------|----------------------|------------------------|
                        Dis hemel op die platteland                     Dis hemel op die platteland


[Verse 2]

     C                                               Am                    C           G
e|-------------0----------|-------------0----------|----------0-----------|------------------------| 
B|-------1-----------1----|-------1-----------1----|-------1-------1------|----------1-----------0-|
G|----------0-----------0-|----------0-----------0-|--------------------2-|-------0-----------0----|
D|----2-----------2-------|----2-----------2-------|----2-----------------|----2-----------0-------|
A|-3----------------------|-3----------------------|-0--------------------|-3-----------2----------|
E|------------------------|------------------------|----------------------|------------------------|
         Reguleer my              Roetineer my             Plaas my in 'n boks en merk dit veilig

C
Stuur my dan waarheen al die dose gaan 
F                                     G
Stuur my hemel toe ek dink dis in die platteland


[Solo]

   Am                      C         Am                      C
e|---------------------------------|---------------------------------|
B|-----------1p0-----0---1---------|-----------1p0-----0---1---------|
G|-----2---------2------------0----|-----2---------2------------0----|
D|-------2---------0-------------0-|-------2---------0-------------0-|
A|-3-----------------------3-------|-3-----------------------3-------|
E|---------------------------------|---------------------------------|


[Verse 3]

Am                  C              G
Kan jy jou idee van normaal by jou gat op druk?
    Am            C   G
Kan jy? Kan jy apatie spel?


[Outro]

Am

    C            G     Am
Dis hemel op die platteland
    C            G     Am
Dis hemel op die platteland
    C            G     Am
Dis hemel op die platteland
    C            G     Am
Dis hemel op die platteland

            
            
Suggest correction
Creating personal tab
Creating personal tab
You can edit any tab online and save it as your Personal.

You can edit, replace or remove any tab part or add personal notes – all changes will be seen only by you.

Personal tabs can be accessed anytime from any device, even offline.
Learn more »
Give kudos to tab author, rate the tab!
1 2 3 4 5
comments
print report bad tab
1 comment total.
0 reply
adrianmouton26 10 Apr 12, 2017 02:48 PM

this is great!!
can we get a video on youtube to show the strumming?

guest
You may want to rate the tab now too:
select rating
Wanna post a correction for this tab? Suggest correction